  0
SECTION
  2
HEADER
  9
$ACADVER
  1
AC1015
  9
$ACADMAINTVER
 70
     6
  9
$DWGCODEPAGE
  3
ANSI_1254
  9
$INSBASE
 10
0.0
 20
0.0
 30
0.0
  9
$EXTMIN
 10
0.0
 20
0.0
 30
0.0
  9
$EXTMAX
 10
279.4
 20
215.9
 30
0.0
  9
$LIMMIN
 10
0.0
 20
0.0
  9
$LIMMAX
 10
279.4
 20
215.9
  9
$ORTHOMODE
 70
     0
  9
$REGENMODE
 70
     1
  9
$FILLMODE
 70
     1
  9
$QTEXTMODE
 70
     0
  9
$MIRRTEXT
 70
     1
  9
$LTSCALE
 40
1.0
  9
$ATTMODE
 70
     1
  9
$TEXTSIZE
 40
3.5
  9
$TRACEWID
 40
1.0
  9
$TEXTSTYLE
  7
Standard
  9
$CLAYER
  8
0
  9
$CELTYPE
  6
ByLayer
  9
$CECOLOR
 62
   256
  9
$CELTSCALE
 40
1.0
  9
$DISPSILH
 70
     0
  9
$DIMSCALE
 40
1.0
  9
$DIMASZ
 40
3.5
  9
$DIMEXO
 40
1.0
  9
$DIMDLI
 40
3.75
  9
$DIMRND
 40
0.0
  9
$DIMDLE
 40
0.0
  9
$DIMEXE
 40
1.0
  9
$DIMTP
 40
0.0
  9
$DIMTM
 40
0.0
  9
$DIMTXT
 40
3.5
  9
$DIMCEN
 40
2.5
  9
$DIMTSZ
 40
0.0
  9
$DIMTOL
 70
     0
  9
$DIMLIM
 70
     0
  9
$DIMTIH
 70
     1
  9
$DIMTOH
 70
     1
  9
$DIMSE1
 70
     0
  9
$DIMSE2
 70
     0
  9
$DIMTAD
 70
     1
  9
$DIMZIN
 70
     0
  9
$DIMBLK
  1

  9
$DIMASO
 70
     1
  9
$DIMSHO
 70
     1
  9
$DIMPOST
  1

  9
$DIMAPOST
  1

  9
$DIMALT
 70
     0
  9
$DIMALTD
 70
     3
  9
$DIMALTF
 40
0.0393700787
  9
$DIMLFAC
 40
1.0
  9
$DIMTOFL
 70
     1
  9
$DIMTVP
 40
0.0
  9
$DIMTIX
 70
     0
  9
$DIMSOXD
 70
     0
  9
$DIMSAH
 70
     0
  9
$DIMBLK1
  1

  9
$DIMBLK2
  1

  9
$DIMSTYLE
  2
ISO-25
  9
$DIMCLRD
 70
     0
  9
$DIMCLRE
 70
     0
  9
$DIMCLRT
 70
     0
  9
$DIMTFAC
 40
1.0
  9
$DIMGAP
 40
1.524
  9
$DIMJUST
 70
     0
  9
$DIMSD1
 70
     0
  9
$DIMSD2
 70
     0
  9
$DIMTOLJ
 70
     0
  9
$DIMTZIN
 70
     0
  9
$DIMALTZ
 70
     0
  9
$DIMALTTZ
 70
     0
  9
$DIMUPT
 70
     0
  9
$DIMDEC
 70
     2
  9
$DIMTDEC
 70
     2
  9
$DIMALTU
 70
     2
  9
$DIMALTTD
 70
     3
  9
$DIMTXSTY
  7
Standard
  9
$DIMAUNIT
 70
     0
  9
$DIMADEC
 70
     2
  9
$DIMALTRND
 40
0.0
  9
$DIMAZIN
 70
     0
  9
$DIMDSEP
 70
    44
  9
$DIMATFIT
 70
     3
  9
$DIMFRAC
 70
     0
  9
$DIMLDRBLK
  1

  9
$DIMLUNIT
 70
     2
  9
$DIMLWD
 70
    -2
  9
$DIMLWE
 70
    -2
  9
$DIMTMOVE
 70
     0
  9
$LUNITS
 70
     2
  9
$LUPREC
 70
     2
  9
$SKETCHINC
 40
1.0
  9
$FILLETRAD
 40
10.0
  9
$AUNITS
 70
     0
  9
$AUPREC
 70
     2
  9
$MENU
  1
.
  9
$ELEVATION
 40
0.0
  9
$PELEVATION
 40
0.0
  9
$THICKNESS
 40
0.0
  9
$LIMCHECK
 70
     0
  9
$CHAMFERA
 40
0.0
  9
$CHAMFERB
 40
0.0
  9
$CHAMFERC
 40
0.0
  9
$CHAMFERD
 40
0.0
  9
$SKPOLY
 70
     0
  9
$TDCREATE
 40
2458985.668838901
  9
$TDUCREATE
 40
2458985.543838901
  9
$TDUPDATE
 40
2458985.668839178
  9
$TDUUPDATE
 40
2458985.543839178
  9
$TDINDWG
 40
0.0000000116
  9
$TDUSRTIMER
 40
0.0000000116
  9
$USRTIMER
 70
     1
  9
$ANGBASE
 50
0.0
  9
$ANGDIR
 70
     0
  9
$PDMODE
 70
     0
  9
$PDSIZE
 40
-1.0
  9
$PLINEWID
 40
0.0
  9
$SPLFRAME
 70
     0
  9
$SPLINETYPE
 70
     6
  9
$SPLINESEGS
 70
     8
  9
$HANDSEED
  5
D2
  9
$SURFTAB1
 70
     6
  9
$SURFTAB2
 70
     6
  9
$SURFTYPE
 70
     6
  9
$SURFU
 70
     6
  9
$SURFV
 70
     6
  9
$UCSBASE
  2

  9
$UCSNAME
  2

  9
$UCSORG
 10
0.0
 20
0.0
 30
0.0
  9
$UCSXDIR
 10
1.0
 20
0.0
 30
0.0
  9
$UCSYDIR
 10
0.0
 20
1.0
 30
0.0
  9
$UCSORTHOREF
  2

  9
$UCSORTHOVIEW
 70
     0
  9
$UCSORGTOP
 10
0.0
 20
0.0
 30
0.0
  9
$UCSORGBOTTOM
 10
0.0
 20
0.0
 30
0.0
  9
$UCSORGLEFT
 10
0.0
 20
0.0
 30
0.0
  9
$UCSORGRIGHT
 10
0.0
 20
0.0
 30
0.0
  9
$UCSORGFRONT
 10
0.0
 20
0.0
 30
0.0
  9
$UCSORGBACK
 10
0.0
 20
0.0
 30
0.0
  9
$PUCSBASE
  2

  9
$PUCSNAME
  2

  9
$PUCSORG
 10
0.0
 20
0.0
 30
0.0
  9
$PUCSXDIR
 10
1.0
 20
0.0
 30
0.0
  9
$PUCSYDIR
 10
0.0
 20
1.0
 30
0.0
  9
$PUCSORTHOREF
  2

  9
$PUCSORTHOVIEW
 70
     0
  9
$PUCSORGTOP
 10
0.0
 20
0.0
 30
0.0
  9
$PUCSORGBOTTOM
 10
0.0
 20
0.0
 30
0.0
  9
$PUCSORGLEFT
 10
0.0
 20
0.0
 30
0.0
  9
$PUCSORGRIGHT
 10
0.0
 20
0.0
 30
0.0
  9
$PUCSORGFRONT
 10
0.0
 20
0.0
 30
0.0
  9
$PUCSORGBACK
 10
0.0
 20
0.0
 30
0.0
  9
$USERI1
 70
     0
  9
$USERI2
 70
     0
  9
$USERI3
 70
     0
  9
$USERI4
 70
     0
  9
$USERI5
 70
     0
  9
$USERR1
 40
0.0
  9
$USERR2
 40
0.0
  9
$USERR3
 40
0.0
  9
$USERR4
 40
0.0
  9
$USERR5
 40
0.0
  9
$WORLDVIEW
 70
     1
  9
$SHADEDGE
 70
     3
  9
$SHADEDIF
 70
    70
  9
$TILEMODE
 70
     1
  9
$MAXACTVP
 70
    64
  9
$PINSBASE
 10
0.0
 20
0.0
 30
0.0
  9
$PLIMCHECK
 70
     0
  9
$PEXTMIN
 10
1.0000000000E+20
 20
1.0000000000E+20
 30
1.0000000000E+20
  9
$PEXTMAX
 10
-1.0000000000E+20
 20
-1.0000000000E+20
 30
-1.0000000000E+20
  9
$PLIMMIN
 10
0.0
 20
0.0
  9
$PLIMMAX
 10
420.0
 20
297.0
  9
$UNITMODE
 70
     0
  9
$VISRETAIN
 70
     1
  9
$PLINEGEN
 70
     0
  9
$PSLTSCALE
 70
     1
  9
$TREEDEPTH
 70
  3020
  9
$CMLSTYLE
  2
Standard
  9
$CMLJUST
 70
     0
  9
$CMLSCALE
 40
20.0
  9
$PROXYGRAPHICS
 70
     1
  9
$MEASUREMENT
 70
     1
  9
$CELWEIGHT
370
    -1
  9
$ENDCAPS
280
     0
  9
$JOINSTYLE
280
     0
  9
$LWDISPLAY
290
     1
  9
$INSUNITS
 70
     4
  9
$HYPERLINKBASE
  1

  9
$STYLESHEET
  1

  9
$XEDIT
290
     1
  9
$CEPSNTYPE
380
     0
  9
$PSTYLEMODE
290
     1
  9
$FINGERPRINTGUID
  2
{463ec70f-e1b0-442a-9776-49aa410d0e9b}
  9
$VERSIONGUID
  2
{FAEB1C32-E019-11D5-929B-00C0DF256EC4}
  9
$EXTNAMES
290
     1
  9
$PSVPSCALE
 40
0.0
  9
$OLESTARTUP
290
     0
  0
ENDSEC
  0
SECTION
  2
CLASSES
  0
CLASS
  1
ACDBDICTIONARYWDFLT
  2
AcDbDictionaryWithDefault
  3
ObjectDBX Classes
 90
        0
280
     0
281
     0
  0
CLASS
  1
VISUALSTYLE
  2
AcDbVisualStyle
  3
ObjectDBX Classes
 90
     4095
280
     0
281
     0
  0
CLASS
  1
MATERIAL
  2
AcDbMaterial
  3
ObjectDBX Classes
 90
     1153
280
     0
281
     0
  0
CLASS
  1
SCALE
  2
AcDbScale
  3
ObjectDBX Classes
 90
     1153
280
     0
281
     0
  0
CLASS
  1
TABLESTYLE
  2
AcDbTableStyle
  3
ObjectDBX Classes
 90
     4095
280
     0
281
     0
  0
CLASS
  1
MLEADERSTYLE
  2
AcDbMLeaderStyle
  3
ACDB_MLEADERSTYLE_CLASS
 90
     4095
280
     0
281
     0
  0
CLASS
  1
SUN
  2
AcDbSun
  3
SCENEOE
 90
     1153
280
     0
281
     0
  0
CLASS
  1
ACDBPLACEHOLDER
  2
AcDbPlaceHolder
  3
ObjectDBX Classes
 90
        0
280
     0
281
     0
  0
CLASS
  1
LAYOUT
  2
AcDbLayout
  3
ObjectDBX Classes
 90
        0
280
     0
281
     0
  0
ENDSEC
  0
SECTION
  2
TABLES
  0
TABLE
  2
VPORT
  5
8
330
0
100
AcDbSymbolTable
 70
     1
  0
VPORT
  5
29
330
8
100
AcDbSymbolTableRecord
100
AcDbViewportTableRecord
  2
*Active
 70
     0
 10
0.0
 20
0.0
 11
1.0
 21
1.0
 12
139.7
 22
107.95
 13
0.0
 23
0.0
 14
10.0
 24
10.0
 15
10.0
 25
10.0
 16
0.0
 26
0.0
 36
1.0
 17
0.0
 27
0.0
 37
0.0
 40
215.9
 41
1.2941176471
 42
50.0
 43
0.0
 44
0.0
 50
0.0
 51
0.0
 71
     0
 72
  2000
 73
     1
 74
     3
 75
     0
 76
     0
 77
     0
 78
     0
281
     0
 65
     1
110
0.0
120
0.0
130
0.0
111
1.0
121
0.0
131
0.0
112
0.0
122
1.0
132
0.0
 79
     0
146
0.0
  0
ENDTAB
  0
TABLE
  2
LTYPE
  5
5
330
0
100
AcDbSymbolTable
 70
     6
  0
LTYPE
  5
14
330
5
100
AcDbSymbolTableRecord
100
AcDbLinetypeTableRecord
  2
ByBlock
 70
     0
  3

 72
    65
 73
     0
 40
0.0
  0
LTYPE
  5
15
330
5
100
AcDbSymbolTableRecord
100
AcDbLinetypeTableRecord
  2
ByLayer
 70
     0
  3

 72
    65
 73
     0
 40
0.0
  0
LTYPE
  5
16
330
5
100
AcDbSymbolTableRecord
100
AcDbLinetypeTableRecord
  2
Continuous
 70
     0
  3
Solid line
 72
    65
 73
     0
 40
0.0
  0
LTYPE
  5
6E
330
5
100
AcDbSymbolTableRecord
100
AcDbLinetypeTableRecord
  2
HIDDEN
 70
     0
  3
Hidden __ __ __ __ __ __ __ __ __ __ __ __ __ __
 72
    65
 73
     2
 40
1.905
 49
1.27
 74
     0
 49
-0.635
 74
     0
  0
LTYPE
  5
6F
330
5
100
AcDbSymbolTableRecord
100
AcDbLinetypeTableRecord
  2
PHANTOM
 70
     0
  3
Phantom ______  __  __  ______  __  __  ______
 72
    65
 73
     6
 40
12.7
 49
6.35
 74
     0
 49
-1.27
 74
     0
 49
1.27
 74
     0
 49
-1.27
 74
     0
 49
1.27
 74
     0
 49
-1.27
 74
     0
  0
LTYPE
  5
70
330
5
100
AcDbSymbolTableRecord
100
AcDbLinetypeTableRecord
  2
CENTER
 70
     0
  3
Center ____ _ ____ _ ____ _ ____ _ ____ _ ____
 72
    65
 73
     4
 40
10.16
 49
6.35
 74
     0
 49
-1.27
 74
     0
 49
1.27
 74
     0
 49
-1.27
 74
     0
  0
LTYPE
  5
71
330
5
100
AcDbSymbolTableRecord
100
AcDbLinetypeTableRecord
  2
CENTERX2
 70
     0
  3
Center (2x) ________  __  ________  __  _____
 72
    65
 73
     4
 40
20.32
 49
12.7
 74
     0
 49
-2.54
 74
     0
 49
2.54
 74
     0
 49
-2.54
 74
     0
  0
LTYPE
  5
72
330
5
100
AcDbSymbolTableRecord
100
AcDbLinetypeTableRecord
  2
DOT2
 70
     0
  3
Dot (.5x) ........................................
 72
    65
 73
     2
 40
0.635
 49
0.0
 74
     0
 49
-0.635
 74
     0
  0
ENDTAB
  0
TABLE
  2
LAYER
  5
2
330
0
100
AcDbSymbolTable
 70
    17
  0
LAYER
  5
10
330
2
100
AcDbSymbolTableRecord
100
AcDbLayerTableRecord
  2
0
 70
     0
 62
     7
  6
Continuous
370
    -3
390
F
  0
LAYER
  5
73
330
2
100
AcDbSymbolTableRecord
100
AcDbLayerTableRecord
  2
FORMAT
 70
     0
 62
     7
  6
Continuous
370
    -3
390
F
  0
LAYER
  5
74
330
2
100
AcDbSymbolTableRecord
100
AcDbLayerTableRecord
  2
YARDIMCI_GEOMETRI
 70
     0
 62
    -6
  6
Continuous
290
     0
370
    -3
390
F
  0
LAYER
  5
75
330
2
100
AcDbSymbolTableRecord
100
AcDbLayerTableRecord
  2
SAYFA_CERCEVESI
 70
     0
 62
     7
  6
Continuous
370
    25
390
F
  0
LAYER
  5
76
330
2
100
AcDbSymbolTableRecord
100
AcDbLayerTableRecord
  2
ANTET
 70
     0
 62
     7
  6
Continuous
370
    -3
390
F
  0
LAYER
  5
77
330
2
100
AcDbSymbolTableRecord
100
AcDbLayerTableRecord
  2
OLCU
 70
     0
 62
   150
  6
Continuous
370
    -3
390
F
  0
LAYER
  5
78
330
2
100
AcDbSymbolTableRecord
100
AcDbLayerTableRecord
  2
METIN
 70
     0
 62
    96
  6
Continuous
370
    -3
390
F
  0
LAYER
  5
79
330
2
100
AcDbSymbolTableRecord
100
AcDbLayerTableRecord
  2
BALON
 70
     0
 62
     5
  6
Continuous
370
    -3
390
F
  0
LAYER
  5
7A
330
2
100
AcDbSymbolTableRecord
100
AcDbLayerTableRecord
  2
VURGU
 70
     0
 62
     7
  6
Continuous
370
    -3
390
F
  0
LAYER
  5
7B
330
2
100
AcDbSymbolTableRecord
100
AcDbLayerTableRecord
  2
SILIK
 70
     0
 62
     7
  6
Continuous
370
    -3
390
F
  0
LAYER
  5
7C
330
2
100
AcDbSymbolTableRecord
100
AcDbLayerTableRecord
  2
MODEL
 70
     0
 62
     7
  6
Continuous
370
    -3
390
F
  0
LAYER
  5
7D
330
2
100
AcDbSymbolTableRecord
100
AcDbLayerTableRecord
  2
DETAYLANDıRMA
 70
     0
 62
   190
  6
Continuous
370
    -3
390
F
  0
LAYER
  5
7E
330
2
100
AcDbSymbolTableRecord
100
AcDbLayerTableRecord
  2
TOLERANS
 70
     0
 62
   230
  6
Continuous
370
    -3
390
F
  0
LAYER
  5
7F
330
2
100
AcDbSymbolTableRecord
100
AcDbLayerTableRecord
  2
MERKEZ_CIZGILERI
 70
     0
 62
    30
  6
Continuous
370
    -3
390
F
  0
LAYER
  5
80
330
2
100
AcDbSymbolTableRecord
100
AcDbLayerTableRecord
  2
KESIT-DETAY_CIZGILERI
 70
     0
 62
     7
  6
Continuous
370
    -3
390
F
  0
LAYER
  5
81
330
2
100
AcDbSymbolTableRecord
100
AcDbLayerTableRecord
  2
\U+041E\U+0421\U+0415\U+0412\U+042B\U+0415
 70
     0
 62
     7
  6
Continuous
370
    -3
390
F
  0
LAYER
  5
82
330
2
100
AcDbSymbolTableRecord
100
AcDbLayerTableRecord
  2
\U+0412\U+041E\U+0414\U+042F\U+041D\U+042B\U+0415_\U+0417\U+041D\U+0410\U+041A\U+0418
 70
     0
 62
    11
  6
Continuous
370
    -3
390
F
  0
ENDTAB
  0
TABLE
  2
STYLE
  5
3
330
0
100
AcDbSymbolTable
 70
     1
  0
STYLE
  5
11
330
3
100
AcDbSymbolTableRecord
100
AcDbTextStyleTableRecord
  2
Standard
 70
     0
 40
0.0
 41
1.0
 50
0.0
 71
     0
 42
3.5
  3
txt
  4

  0
ENDTAB
  0
TABLE
  2
VIEW
  5
6
330
0
100
AcDbSymbolTable
 70
     0
  0
ENDTAB
  0
TABLE
  2
UCS
  5
7
330
0
100
AcDbSymbolTable
 70
     0
  0
ENDTAB
  0
TABLE
  2
APPID
  5
9
330
0
100
AcDbSymbolTable
 70
     1
  0
APPID
  5
12
330
9
100
AcDbSymbolTableRecord
100
AcDbRegAppTableRecord
  2
ACAD
 70
     0
  0
ENDTAB
  0
TABLE
  2
DIMSTYLE
  5
A
330
0
100
AcDbSymbolTable
 70
     1
100
AcDbDimStyleTable
  0
DIMSTYLE
105
27
330
A
100
AcDbSymbolTableRecord
100
AcDbDimStyleTableRecord
  2
ISO-25
 70
     0
 41
2.5
 42
0.625
 43
3.75
 44
1.25
 73
     0
 74
     0
 77
     1
 78
     8
140
2.5
141
2.5
143
0.0393700787
147
0.625
171
     3
172
     1
178
     0
271
     2
272
     2
274
     3
278
    44
283
     0
284
     8
340
11
  0
ENDTAB
  0
TABLE
  2
BLOCK_RECORD
  5
1
330
0
100
AcDbSymbolTable
 70
     3
  0
BLOCK_RECORD
  5
1F
330
1
100
AcDbSymbolTableRecord
100
AcDbBlockTableRecord
  2
*Model_Space
340
22
  0
BLOCK_RECORD
  5
1B
330
1
100
AcDbSymbolTableRecord
100
AcDbBlockTableRecord
  2
*Paper_Space
340
1E
  0
BLOCK_RECORD
  5
23
330
1
100
AcDbSymbolTableRecord
100
AcDbBlockTableRecord
  2
*Paper_Space0
340
26
  0
BLOCK_RECORD
  5
94
330
1
100
AcDbSymbolTableRecord
100
AcDbBlockTableRecord
  2
SW_CENTERMARKSYMBOL_0
340
0
102
{BLKREFS
331
9F
102
}
  0
BLOCK_RECORD
  5
A5
330
1
100
AcDbSymbolTableRecord
100
AcDbBlockTableRecord
  2
SW_CENTERMARKSYMBOL_1
340
0
102
{BLKREFS
331
B0
102
}
  0
ENDTAB
  0
ENDSEC
  0
SECTION
  2
BLOCKS
  0
BLOCK
  5
20
330
1F
100
AcDbEntity
  8
0
100
AcDbBlockBegin
  2
*Model_Space
 70
     0
 10
0.0
 20
0.0
 30
0.0
  3
*Model_Space
  1

  0
ENDBLK
  5
21
330
1F
100
AcDbEntity
  8
0
100
AcDbBlockEnd
  0
BLOCK
  5
1C
330
1B
100
AcDbEntity
 67
     1
  8
0
100
AcDbBlockBegin
  2
*Paper_Space
 70
     0
 10
0.0
 20
0.0
 30
0.0
  3
*Paper_Space
  1

  0
ENDBLK
  5
1D
330
1B
100
AcDbEntity
 67
     1
  8
0
100
AcDbBlockEnd
  0
BLOCK
  5
24
330
23
100
AcDbEntity
  8
0
100
AcDbBlockBegin
  2
*Paper_Space0
 70
     0
 10
0.0
 20
0.0
 30
0.0
  3
*Paper_Space0
  1

  0
ENDBLK
  5
25
330
23
100
AcDbEntity
  8
0
100
AcDbBlockEnd
  0
BLOCK
  5
95
330
94
100
AcDbEntity
  8
0
100
AcDbBlockBegin
  2
SW_CENTERMARKSYMBOL_0
 70
     0
 10
0.0
 20
0.0
 30
0.0
  3
SW_CENTERMARKSYMBOL_0
  1

  0
LINE
  5
97
330
94
100
AcDbEntity
  8
FORMAT
 62
     0
100
AcDbLine
 10
0.0
 20
0.0
 30
0.0
 11
0.0
 21
2.5
 31
0.0
  0
LINE
  5
98
330
94
100
AcDbEntity
  8
FORMAT
 62
     0
100
AcDbLine
 10
0.0
 20
0.0
 30
0.0
 11
-2.5
 21
0.0
 31
0.0
  0
LINE
  5
99
330
94
100
AcDbEntity
  8
FORMAT
 62
     0
100
AcDbLine
 10
0.0
 20
0.0
 30
0.0
 11
0.0
 21
-2.5
 31
0.0
  0
LINE
  5
9A
330
94
100
AcDbEntity
  8
FORMAT
 62
     0
100
AcDbLine
 10
0.0
 20
0.0
 30
0.0
 11
2.5
 21
0.0
 31
0.0
  0
LINE
  5
9B
330
94
100
AcDbEntity
  8
FORMAT
 62
     0
100
AcDbLine
 10
0.0
 20
5.0
 30
0.0
 11
0.0
 21
92.5
 31
0.0
  0
LINE
  5
9C
330
94
100
AcDbEntity
  8
FORMAT
 62
     0
100
AcDbLine
 10
-5.0
 20
0.0
 30
0.0
 11
-92.5
 21
0.0
 31
0.0
  0
LINE
  5
9D
330
94
100
AcDbEntity
  8
FORMAT
 62
     0
100
AcDbLine
 10
0.0
 20
-5.0
 30
0.0
 11
0.0
 21
-92.5
 31
0.0
  0
LINE
  5
9E
330
94
100
AcDbEntity
  8
FORMAT
 62
     0
100
AcDbLine
 10
5.0
 20
0.0
 30
0.0
 11
92.5
 21
0.0
 31
0.0
  0
ENDBLK
  5
96
330
94
100
AcDbEntity
  8
0
100
AcDbBlockEnd
  0
BLOCK
  5
A6
330
A5
100
AcDbEntity
  8
0
100
AcDbBlockBegin
  2
SW_CENTERMARKSYMBOL_1
 70
     0
 10
0.0
 20
0.0
 30
0.0
  3
SW_CENTERMARKSYMBOL_1
  1

  0
LINE
  5
A8
330
A5
100
AcDbEntity
  8
FORMAT
 62
     0
100
AcDbLine
 10
0.0
 20
0.0
 30
0.0
 11
0.0
 21
2.5
 31
0.0
  0
LINE
  5
A9
330
A5
100
AcDbEntity
  8
FORMAT
 62
     0
100
AcDbLine
 10
0.0
 20
0.0
 30
0.0
 11
-2.5
 21
0.0
 31
0.0
  0
LINE
  5
AA
330
A5
100
AcDbEntity
  8
FORMAT
 62
     0
100
AcDbLine
 10
0.0
 20
0.0
 30
0.0
 11
0.0
 21
-2.5
 31
0.0
  0
LINE
  5
AB
330
A5
100
AcDbEntity
  8
FORMAT
 62
     0
100
AcDbLine
 10
0.0
 20
0.0
 30
0.0
 11
2.5
 21
0.0
 31
0.0
  0
LINE
  5
AC
330
A5
100
AcDbEntity
  8
FORMAT
 62
     0
100
AcDbLine
 10
0.0
 20
5.0
 30
0.0
 11
0.0
 21
92.5
 31
0.0
  0
LINE
  5
AD
330
A5
100
AcDbEntity
  8
FORMAT
 62
     0
100
AcDbLine
 10
-5.0
 20
0.0
 30
0.0
 11
-92.5
 21
0.0
 31
0.0
  0
LINE
  5
AE
330
A5
100
AcDbEntity
  8
FORMAT
 62
     0
100
AcDbLine
 10
0.0
 20
-5.0
 30
0.0
 11
0.0
 21
-92.5
 31
0.0
  0
LINE
  5
AF
330
A5
100
AcDbEntity
  8
FORMAT
 62
     0
100
AcDbLine
 10
5.0
 20
0.0
 30
0.0
 11
92.5
 21
0.0
 31
0.0
  0
ENDBLK
  5
A7
330
A5
100
AcDbEntity
  8
0
100
AcDbBlockEnd
  0
ENDSEC
  0
SECTION
  2
ENTITIES
  0
LINE
  5
83
330
1F
100
AcDbEntity
  8
0
  6
Continuous
 62
     7
370
    25
100
AcDbLine
 10
51.1418650279
 20
278.6330028794
 30
0.0
 11
51.1418650279
 21
0.032921078
 31
0.0
  0
LINE
  5
84
330
1F
100
AcDbEntity
  8
0
  6
Continuous
 62
     7
370
    25
100
AcDbLine
 10
231.1418721805
 20
0.032921078
 30
0.0
 11
231.1418721805
 21
278.6330028794
 31
0.0
  0
LINE
  5
85
330
1F
100
AcDbEntity
  8
0
  6
Continuous
 62
     7
370
    25
100
AcDbLine
 10
231.1418721805
 20
278.6330028794
 30
0.0
 11
231.1418721805
 21
394.0329297803
 31
0.0
  0
LINE
  5
86
330
1F
100
AcDbEntity
  8
0
  6
Continuous
 62
     7
370
    25
100
AcDbLine
 10
231.1418721805
 20
-183.9670792797
 30
0.0
 11
231.1418721805
 21
0.032921078
 31
0.0
  0
LINE
  5
87
330
1F
100
AcDbEntity
  8
0
  6
Continuous
 62
     7
370
    25
100
AcDbLine
 10
51.1418650279
 20
0.032921078
 30
0.0
 11
51.1418650279
 21
-183.9670792797
 31
0.0
  0
LINE
  5
88
330
1F
100
AcDbEntity
  8
0
  6
Continuous
 62
     7
370
    25
100
AcDbLine
 10
51.1418650279
 20
394.0329297803
 30
0.0
 11
51.1418650279
 21
278.6330028794
 31
0.0
  0
LWPOLYLINE
  5
89
330
1F
100
AcDbEntity
  8
0
  6
Continuous
 62
     7
370
    25
100
AcDbPolyline
 90
       95
 70
   128
 43
0.0
 10
141.1418686042
 20
334.7065790913
 10
135.8452126736
 20
334.5813497326
 10
130.5722132678
 20
334.2062577031
 10
125.3464198093
 20
333.582912328
 10
120.1911731044
 20
332.7142342351
 10
115.1294982413
 20
331.6039785168
 10
110.1839984188
 20
330.2570923588
 10
105.3767646084
 20
328.6797150395
 10
100.7292675207
 20
326.8787606976
 10
96.2622644732
 20
324.8623951695
 10
91.9957006703
 20
322.6394995473
 10
87.9486384223
 20
320.2200874112
 10
84.1391491125
 20
317.6148875973
 10
80.584249867
 20
314.8356422207
 10
77.2998104225
 20
311.8946894429
 10
74.3005121479
 20
308.8052018902
 10
71.5997362862
 20
305.5809184334
 10
69.2095602284
 20
302.2362931988
 10
67.1406457553
 20
298.7862571499
 10
65.4022390376
 20
295.2462180874
 10
64.00210358
 20
291.6319712422
 10
62.9464978705
 20
287.9596694729
 10
62.2401306758
 20
284.245704057
 10
61.8861535917
 20
280.5066748879
 10
61.8861535917
 20
276.7593010686
 10
62.2401306758
 20
273.0202718995
 10
62.9464978705
 20
269.3063064835
 10
64.00210358
 20
265.6340047143
 10
65.4022390376
 20
262.019757869
 10
67.1406457553
 20
258.4797188065
 10
69.2095602284
 20
255.0296827576
 10
71.5997362862
 20
251.685057523
 10
74.3005121479
 20
248.4608038685
 10
77.2998104225
 20
245.3712865136
 10
80.584249867
 20
242.4303337357
 10
84.1391491125
 20
239.6510585568
 10
87.9486384223
 20
237.0459183476
 10
91.9957006703
 20
234.6264764092
 10
96.2622644732
 20
232.4036105893
 10
100.7292675207
 20
230.3872152588
 10
105.3767646084
 20
228.5862907193
 10
110.1839984188
 20
227.0088835976
 10
115.1294982413
 20
225.662027242
 10
120.1911731044
 20
224.5517715237
 10
125.3464198093
 20
223.6830338261
 10
130.5722132678
 20
223.0597480557
 10
135.8452126736
 20
222.6846560261
 10
141.1418686042
 20
222.5594266675
 10
146.4385245348
 20
222.6846560261
 10
151.7115239407
 20
223.0597480557
 10
156.9373173992
 20
223.6830338261
 10
162.092564104
 20
224.5517715237
 10
167.1542389671
 20
225.662027242
 10
172.0997387896
 20
227.0088835976
 10
176.9069726
 20
228.5862907193
 10
181.5544696877
 20
230.3872152588
 10
186.0214727352
 20
232.4036105893
 10
190.2880365382
 20
234.6264764092
 10
194.3350987862
 20
237.0459183476
 10
198.1445880959
 20
239.6510585568
 10
201.6994873414
 20
242.4303337357
 10
204.983926786
 20
245.3712865136
 10
207.9832250605
 20
248.4608038685
 10
210.6840009222
 20
251.685057523
 10
213.0741769801
 20
255.0296827576
 10
215.1430914531
 20
258.4797188065
 10
216.8814981709
 20
262.019757869
 10
218.2816336284
 20
265.6340047143
 10
219.337239338
 20
269.3063064835
 10
220.0436065326
 20
273.0202718995
 10
220.3975836168
 20
276.7593010686
 10
220.3975836168
 20
280.5066748879
 10
220.0436065326
 20
284.245704057
 10
219.337239338
 20
287.9596694729
 10
218.2816336284
 20
291.6319712422
 10
216.8814981709
 20
295.2462180874
 10
215.1430914531
 20
298.7862571499
 10
213.0741769801
 20
302.2362931988
 10
210.6840009222
 20
305.5809184334
 10
207.9832250605
 20
308.8052018902
 10
204.983926786
 20
311.8946894429
 10
201.6994873414
 20
314.8356422207
 10
198.1445880959
 20
317.6148875973
 10
194.3350987862
 20
320.2200874112
 10
190.2880365382
 20
322.6394995473
 10
186.0214727352
 20
324.8623951695
 10
181.5544696877
 20
326.8787606976
 10
176.9069726
 20
328.6797150395
 10
172.0997387896
 20
330.2570923588
 10
167.1542389671
 20
331.6039785168
 10
162.092564104
 20
332.7142342351
 10
156.9373173992
 20
333.582912328
 10
151.7115239407
 20
334.2062577031
 10
146.4385245348
 20
334.5813497326
 10
141.1418686042
 20
334.7065790913
  0
LWPOLYLINE
  5
8A
330
1F
100
AcDbEntity
  8
0
  6
Continuous
 62
     7
370
    25
100
AcDbPolyline
 90
      101
 70
   128
 43
0.0
 10
141.1418686042
 20
342.2726138852
 10
135.4907219651
 20
342.1470268986
 10
129.8618777076
 20
341.7708023808
 10
124.2775502036
 20
341.1453708432
 10
118.759778736
 20
340.2732356808
 10
113.3303394894
 20
339.1578539631
 10
108.0106603334
 20
337.8035768292
 10
102.821733279
 20
336.2158283017
 10
97.7840381096
 20
334.4008072636
 10
92.9174566994
 20
332.3656662724
 10
88.2411966453
 20
330.1185115597
 10
83.7737093101
 20
327.668164613
 10
79.5326302181
 20
325.0242813847
 10
75.5346933732
 20
322.1972926877
 10
71.7956791053
 20
319.1984041951
 10
68.3303395639
 20
316.0394176266
 10
65.1523540149
 20
312.7327903531
 10
62.2742692361
 20
309.2916055939
 10
59.7074324618
 20
305.7294234059
 10
57.4619839321
 20
302.0603104851
 10
55.5467823873
 20
298.298720958
 10
53.9693827162
 20
294.4595261834
 10
52.7360136042
 20
290.557865741
 10
51.851547731
 20
286.6091474316
 10
51.3194645176
 20
282.6289578698
 10
51.1418650279
 20
278.6330028794
 10
51.3194645176
 20
274.6370180867
 10
51.851547731
 20
270.6568285248
 10
52.7360136042
 20
266.7081102154
 10
53.9693827162
 20
262.8064795754
 10
55.5467823873
 20
258.9672848008
 10
57.4619839321
 20
255.2056952736
 10
59.7074324618
 20
251.5365525506
 10
62.2742692361
 20
247.9743703625
 10
65.1523540149
 20
244.5331856034
 10
68.3303395639
 20
241.2265583298
 10
71.7956791053
 20
238.0675717614
 10
75.5346933732
 20
235.0686832688
 10
79.5326302181
 20
232.2417243741
 10
83.7737093101
 20
229.5978411458
 10
88.2411966453
 20
227.1474643967
 10
92.9174566994
 20
224.9002798817
 10
97.7840381096
 20
222.8651686928
 10
102.821733279
 20
221.0501476548
 10
108.0106603334
 20
219.4623693249
 10
113.3303394894
 20
218.1081219933
 10
118.759778736
 20
216.9927402756
 10
124.2775502036
 20
216.1206051133
 10
129.8618777076
 20
215.495203378
 10
135.4907219651
 20
215.1189490578
 10
141.1418686042
 20
214.9933918736
 10
146.7930152434
 20
215.1189490578
 10
152.4218595008
 20
215.495203378
 10
158.0061870048
 20
216.1206051133
 10
163.5239584724
 20
216.9927402756
 10
168.9533977191
 20
218.1081219933
 10
174.273076875
 20
219.4623693249
 10
179.4620039294
 20
221.0501476548
 10
184.4996990989
 20
222.8651686928
 10
189.366280509
 20
224.9002798817
 10
194.0425405631
 20
227.1474643967
 10
198.5100278984
 20
229.5978411458
 10
202.7511069904
 20
232.2417243741
 10
206.7490438352
 20
235.0686832688
 10
210.4880581031
 20
238.0675717614
 10
213.9533976446
 20
241.2265583298
 10
217.1313831935
 20
244.5331856034
 10
220.0094679723
 20
247.9743703625
 10
222.5763047467
 20
251.5365525506
 10
224.8217532764
 20
255.2056952736
 10
226.7369548211
 20
258.9672848008
 10
228.3143544922
 20
262.8064795754
 10
229.5477236042
 20
266.7081102154
 10
230.4321894775
 20
270.6568285248
 10
230.9642726908
 20
274.6370180867
 10
231.1418721805
 20
278.6330028794
 10
230.9642726908
 20
282.6289578698
 10
230.4321894775
 20
286.6091474316
 10
229.5477236042
 20
290.557865741
 10
228.3143544922
 20
294.4595261834
 10
226.7369548211
 20
298.298720958
 10
224.8217532764
 20
302.0603104851
 10
222.5763047467
 20
305.7294234059
 10
220.0094679723
 20
309.2916055939
 10
217.1313831935
 20
312.7327903531
 10
213.9533976446
 20
316.0394176266
 10
210.4880581031
 20
319.1984041951
 10
206.7490438352
 20
322.1972926877
 10
202.7511069904
 20
325.0242813847
 10
198.5100278984
 20
327.668164613
 10
194.0425405631
 20
330.1185115597
 10
189.366280509
 20
332.3656662724
 10
184.4996990989
 20
334.4008072636
 10
179.4620039294
 20
336.2158283017
 10
174.273076875
 20
337.8035768292
 10
168.9533977191
 20
339.1578539631
 10
163.5239584724
 20
340.2732356808
 10
158.0061870048
 20
341.1453708432
 10
152.4218595008
 20
341.7708023808
 10
146.7930152434
 20
342.1470268986
 10
141.1418686042
 20
342.2726138852
  0
ELLIPSE
  5
8B
330
1F
100
AcDbEntity
  8
0
  6
Continuous
 62
     7
370
    25
100
AcDbEllipse
 10
141.1418686042
 20
0.0329207203
 30
0.0
 11
89.99999999999997
 21
0.0
 31
0.0
210
0.0
220
0.0
230
1.0
 40
0.4142135624
 41
3.141592653589827
 42
6.283185307179586
  0
LINE
  5
8C
330
1F
100
AcDbEntity
  8
0
  6
Continuous
 62
     7
370
    25
100
AcDbLine
 10
51.1418650279
 20
-183.9670792797
 30
0.0
 11
231.1418721805
 21
-183.9670792797
 31
0.0
  0
LINE
  5
8D
330
1F
100
AcDbEntity
  8
0
  6
Continuous
 62
     7
370
    25
100
AcDbLine
 10
51.1418650279
 20
394.0329297803
 30
0.0
 11
231.1418721805
 21
394.0329297803
 31
0.0
  0
LINE
  5
8E
330
1F
100
AcDbEntity
  8
0
  6
Continuous
 62
     7
370
    25
100
AcDbLine
 10
231.1418721805
 20
668.7022188018
 30
0.0
 11
231.1418721805
 21
947.3022857021
 31
0.0
  0
LINE
  5
8F
330
1F
100
AcDbEntity
  8
0
  6
Continuous
 62
     7
370
    25
100
AcDbLine
 10
51.1418650279
 20
947.3022857021
 30
0.0
 11
51.1418650279
 21
668.7022188018
 31
0.0
  0
CIRCLE
  5
90
330
1F
100
AcDbEntity
  8
0
  6
Continuous
 62
     7
370
    25
100
AcDbCircle
 10
141.1418686042
 20
947.3022857021
 30
0.0
 40
79.29999999999998
  0
CIRCLE
  5
91
330
1F
100
AcDbEntity
  8
0
  6
Continuous
 62
     7
370
    25
100
AcDbCircle
 10
141.1418686042
 20
947.3022857021
 30
0.0
 40
90.0
  0
LWPOLYLINE
  5
92
330
1F
100
AcDbEntity
  8
0
  6
Continuous
 62
     7
370
    25
100
AcDbPolyline
 90
      101
 70
   128
 43
0.0
 10
141.1418686042
 20
732.3418298076
 10
135.4907219651
 20
732.2162428211
 10
129.8618777076
 20
731.8400034021
 10
124.2775502036
 20
731.2145867656
 10
118.759778736
 20
730.3424665044
 10
113.3303394894
 20
729.2270847867
 10
108.0106603334
 20
727.872822554
 10
102.821733279
 20
726.2850591253
 10
97.7840381096
 20
724.4700231861
 10
92.9174566994
 20
722.4349119972
 10
88.2411966453
 20
720.1877423833
 10
83.7737093101
 20
717.7373805355
 10
79.5326302181
 20
715.0934973072
 10
75.5346933732
 20
712.2665235113
 10
71.7956791053
 20
709.2676350187
 10
68.3303395639
 20
706.1086335491
 10
65.1523540149
 20
702.8020211767
 10
62.2742692361
 20
699.3608364175
 10
59.7074324618
 20
695.7986393283
 10
57.4619839321
 20
692.1295264076
 10
55.5467823873
 20
688.3679368804
 10
53.9693827162
 20
684.5287421058
 10
52.7360136042
 20
680.6270816635
 10
51.851547731
 20
676.6783633541
 10
51.3194645176
 20
672.6981737922
 10
51.1418650279
 20
668.7022188018
 10
51.3194645176
 20
664.7062638114
 10
51.851547731
 20
660.7260444473
 10
52.7360136042
 20
656.7773261379
 10
53.9693827162
 20
652.8756954978
 10
55.5467823873
 20
649.0365007232
 10
57.4619839321
 20
645.2749111961
 10
59.7074324618
 20
641.6057982753
 10
62.2742692361
 20
638.043586285
 10
65.1523540149
 20
634.6024015258
 10
68.3303395639
 20
631.2958040546
 10
71.7956791053
 20
628.1367876838
 10
75.5346933732
 20
625.1378991912
 10
79.5326302181
 20
622.3109402965
 10
83.7737093101
 20
619.6670570682
 10
88.2411966453
 20
617.2166803192
 10
92.9174566994
 20
614.9695256065
 10
97.7840381096
 20
612.9343846153
 10
102.821733279
 20
611.1193635772
 10
108.0106603334
 20
609.5316150497
 10
113.3303394894
 20
608.1773379157
 10
118.759778736
 20
607.0619561981
 10
124.2775502036
 20
606.189850838
 10
129.8618777076
 20
605.5644193004
 10
135.4907219651
 20
605.1881947826
 10
141.1418686042
 20
605.062607796
 10
146.7930152434
 20
605.1881947826
 10
152.4218595008
 20
605.5644193004
 10
158.0061870048
 20
606.189850838
 10
163.5239584724
 20
607.0619561981
 10
168.9533977191
 20
608.1773379157
 10
174.273076875
 20
609.5316150497
 10
179.4620039294
 20
611.1193635772
 10
184.4996990989
 20
612.9343846153
 10
189.366280509
 20
614.9695256065
 10
194.0425405631
 20
617.2166803192
 10
198.5100278984
 20
619.6670570682
 10
202.7511069904
 20
622.3109402965
 10
206.7490438352
 20
625.1378991912
 10
210.4880581031
 20
628.1367876838
 10
213.9533976446
 20
631.2958040546
 10
217.1313831935
 20
634.6024015258
 10
220.0094679723
 20
638.043586285
 10
222.5763047467
 20
641.6057982753
 10
224.8217532764
 20
645.2749111961
 10
226.7369548211
 20
649.0365007232
 10
228.3143544922
 20
652.8756954978
 10
229.5477236042
 20
656.7773261379
 10
230.4321894775
 20
660.7260444473
 10
230.9642726908
 20
664.7062638114
 10
231.1418721805
 20
668.7022188018
 10
230.9642726908
 20
672.6981737922
 10
230.4321894775
 20
676.6783633541
 10
229.5477236042
 20
680.6270816635
 10
228.3143544922
 20
684.5287421058
 10
226.7369548211
 20
688.3679368804
 10
224.8217532764
 20
692.1295264076
 10
222.5763047467
 20
695.7986393283
 10
220.0094679723
 20
699.3608364175
 10
217.1313831935
 20
702.8020211767
 10
213.9533976446
 20
706.1086335491
 10
210.4880581031
 20
709.2676350187
 10
206.7490438352
 20
712.2665235113
 10
202.7511069904
 20
715.0934973072
 10
198.5100278984
 20
717.7373805355
 10
194.0425405631
 20
720.1877423833
 10
189.366280509
 20
722.4349119972
 10
184.4996990989
 20
724.4700231861
 10
179.4620039294
 20
726.2850591253
 10
174.273076875
 20
727.872822554
 10
168.9533977191
 20
729.2270847867
 10
163.5239584724
 20
730.3424665044
 10
158.0061870048
 20
731.2145867656
 10
152.4218595008
 20
731.8400034021
 10
146.7930152434
 20
732.2162428211
 10
141.1418686042
 20
732.3418298076
  0
LWPOLYLINE
  5
93
330
1F
100
AcDbEntity
  8
0
  6
Continuous
 62
     7
370
    25
100
AcDbPolyline
 90
       95
 70
   128
 43
0.0
 10
141.1418686042
 20
724.7757801126
 10
135.8452126736
 20
724.6505656551
 10
130.5722132678
 20
724.2754587243
 10
125.3464198093
 20
723.6521580528
 10
120.1911731044
 20
722.7834352563
 10
115.1294982413
 20
721.6731795381
 10
110.1839984188
 20
720.3263380836
 10
105.3767646084
 20
718.7489309619
 10
100.7292675207
 20
716.9480064224
 10
96.2622644732
 20
714.9315961908
 10
91.9957006703
 20
712.7087154697
 10
87.9486384223
 20
710.2892884324
 10
84.1391491125
 20
707.6841333221
 10
80.584249867
 20
704.9048730443
 10
77.2998104225
 20
701.9639202665
 10
74.3005121479
 20
698.8744178127
 10
71.5997362862
 20
695.6501343559
 10
69.2095602284
 20
692.3055389236
 10
67.1406457553
 20
688.8555028747
 10
65.4022390376
 20
685.3154340099
 10
64.00210358
 20
681.7011871646
 10
62.9464978705
 20
678.0288853954
 10
62.2401306758
 20
674.3149497817
 10
61.8861535917
 20
670.5759206127
 10
61.8861535917
 20
666.828516991
 10
62.2401306758
 20
663.0894878219
 10
62.9464978705
 20
659.375522406
 10
64.00210358
 20
655.7032206367
 10
65.4022390376
 20
652.0889737915
 10
67.1406457553
 20
648.548934729
 10
69.2095602284
 20
645.0988986801
 10
71.5997362862
 20
641.7542734455
 10
74.3005121479
 20
638.530019791
 10
77.2998104225
 20
635.440502436
 10
80.584249867
 20
632.4995496581
 10
84.1391491125
 20
629.7203042816
 10
87.9486384223
 20
627.11513427
 10
91.9957006703
 20
624.695722134
 10
96.2622644732
 20
622.4728265117
 10
100.7292675207
 20
620.4564311813
 10
105.3767646084
 20
618.6555066417
 10
110.1839984188
 20
617.0780995201
 10
115.1294982413
 20
615.7312431644
 10
120.1911731044
 20
614.6209874462
 10
125.3464198093
 20
613.7522795509
 10
130.5722132678
 20
613.1289639781
 10
135.8452126736
 20
612.7538719486
 10
141.1418686042
 20
612.6286425899
 10
146.4385245348
 20
612.7538719486
 10
151.7115239407
 20
613.1289639781
 10
156.9373173992
 20
613.7522795509
 10
162.092564104
 20
614.6209874462
 10
167.1542389671
 20
615.7312431644
 10
172.0997387896
 20
617.0780995201
 10
176.9069726
 20
618.6555066417
 10
181.5544696877
 20
620.4564311813
 10
186.0214727352
 20
622.4728265117
 10
190.2880365382
 20
624.695722134
 10
194.3350987862
 20
627.11513427
 10
198.1445880959
 20
629.7203042816
 10
201.6994873414
 20
632.4995496581
 10
204.983926786
 20
635.440502436
 10
207.9832250605
 20
638.530019791
 10
210.6840009222
 20
641.7542734455
 10
213.0741769801
 20
645.0988986801
 10
215.1430914531
 20
648.548934729
 10
216.8814981709
 20
652.0889737915
 10
218.2816336284
 20
655.7032206367
 10
219.337239338
 20
659.375522406
 10
220.0436065326
 20
663.0894878219
 10
220.3975836168
 20
666.828516991
 10
220.3975836168
 20
670.5759206127
 10
220.0436065326
 20
674.3149497817
 10
219.337239338
 20
678.0288853954
 10
218.2816336284
 20
681.7011871646
 10
216.8814981709
 20
685.3154340099
 10
215.1430914531
 20
688.8555028747
 10
213.0741769801
 20
692.3055389236
 10
210.6840009222
 20
695.6501343559
 10
207.9832250605
 20
698.8744178127
 10
204.983926786
 20
701.9639202665
 10
201.6994873414
 20
704.9048730443
 10
198.1445880959
 20
707.6841333221
 10
194.3350987862
 20
710.2892884324
 10
190.2880365382
 20
712.7087154697
 10
186.0214727352
 20
714.9315961908
 10
181.5544696877
 20
716.9480064224
 10
176.9069726
 20
718.7489309619
 10
172.0997387896
 20
720.3263380836
 10
167.1542389671
 20
721.6731795381
 10
162.092564104
 20
722.7834352563
 10
156.9373173992
 20
723.6521580528
 10
151.7115239407
 20
724.2754587243
 10
146.4385245348
 20
724.6505656551
 10
141.1418686042
 20
724.7757801126
  0
INSERT
  5
9F
330
1F
100
AcDbEntity
  8
FORMAT
100
AcDbBlockReference
  2
SW_CENTERMARKSYMBOL_0
 10
141.1418686042
 20
947.3022857021
 30
0.0
  0
LINE
  5
A0
330
1F
100
AcDbEntity
  8
0
  6
Continuous
 62
     7
370
    25
100
AcDbLine
 10
51.1418650279
 20
-417.1448470212
 30
0.0
 11
51.1418650279
 21
-695.7449139214
 31
0.0
  0
LINE
  5
A1
330
1F
100
AcDbEntity
  8
0
  6
Continuous
 62
     7
370
    25
100
AcDbLine
 10
231.1418721805
 20
-695.7449139214
 30
0.0
 11
231.1418721805
 21
-417.1448470212
 31
0.0
  0
CIRCLE
  5
A2
330
1F
100
AcDbEntity
  8
0
  6
Continuous
 62
     7
370
    25
100
AcDbCircle
 10
141.1418686042
 20
-695.7449139214
 30
0.0
 40
79.29999999999998
  0
CIRCLE
  5
A3
330
1F
100
AcDbEntity
  8
0
  6
Continuous
 62
     7
370
    25
100
AcDbCircle
 10
141.1418686042
 20
-695.7449139214
 30
0.0
 40
90.0
  0
LWPOLYLINE
  5
A4
330
1F
100
AcDbEntity
  8
0
  6
Continuous
 62
     7
370
    25
100
AcDbPolyline
 90
       51
 70
   128
 43
0.0
 10
51.1418650279
 20
-417.1448470212
 10
51.3194645176
 20
-413.1488920308
 10
51.851547731
 20
-409.1686726666
 10
52.7360136042
 20
-405.2199543572
 10
53.9693827162
 20
-401.3183237172
 10
55.5467823873
 20
-397.4791289426
 10
57.4619839321
 20
-393.7175394154
 10
59.7074324618
 20
-390.0484264947
 10
62.2742692361
 20
-386.4862145043
 10
65.1523540149
 20
-383.0450297452
 10
68.3303395639
 20
-379.7384322739
 10
71.7956791053
 20
-376.5794159032
 10
75.5346933732
 20
-373.5805274106
 10
79.5326302181
 20
-370.7535685159
 10
83.7737093101
 20
-368.1096852876
 10
88.2411966453
 20
-365.6593085385
 10
92.9174566994
 20
-363.4121538258
 10
97.7840381096
 20
-361.3770128346
 10
102.821733279
 20
-359.5619917966
 10
108.0106603334
 20
-357.974243269
 10
113.3303394894
 20
-356.6199661351
 10
118.759778736
 20
-355.5045844174
 10
124.2775502036
 20
-354.6324790574
 10
129.8618777076
 20
-354.0070475198
 10
135.4907219651
 20
-353.6308230019
 10
141.1418686042
 20
-353.5052360154
 10
146.7930152434
 20
-353.6308230019
 10
152.4218595008
 20
-354.0070475198
 10
158.0061870048
 20
-354.6324790574
 10
163.5239584724
 20
-355.5045844174
 10
168.9533977191
 20
-356.6199661351
 10
174.273076875
 20
-357.974243269
 10
179.4620039294
 20
-359.5619917966
 10
184.4996990989
 20
-361.3770128346
 10
189.366280509
 20
-363.4121538258
 10
194.0425405631
 20
-365.6593085385
 10
198.5100278984
 20
-368.1096852876
 10
202.7511069904
 20
-370.7535685159
 10
206.7490438352
 20
-373.5805274106
 10
210.4880581031
 20
-376.5794159032
 10
213.9533976446
 20
-379.7384322739
 10
217.1313831935
 20
-383.0450297452
 10
220.0094679723
 20
-386.4862145043
 10
222.5763047467
 20
-390.0484264947
 10
224.8217532764
 20
-393.7175394154
 10
226.7369548211
 20
-397.4791289426
 10
228.3143544922
 20
-401.3183237172
 10
229.5477236042
 20
-405.2199543572
 10
230.4321894775
 20
-409.1686726666
 10
230.9642726908
 20
-413.1488920308
 10
231.1418721805
 20
-417.1448470212
  0
INSERT
  5
B0
330
1F
100
AcDbEntity
  8
FORMAT
100
AcDbBlockReference
  2
SW_CENTERMARKSYMBOL_1
 10
141.1418686042
 20
-695.7449139214
 30
0.0
  0
LINE
  5
B1
330
1F
100
AcDbEntity
  8
0
  6
Continuous
 62
     7
370
    25
100
AcDbLine
 10
732.2950592901
 20
217.3121317647
 30
0.0
 11
732.2950592901
 21
394.0329297803
 31
0.0
  0
LINE
  5
B2
330
1F
100
AcDbEntity
  8
0
  6
Continuous
 62
     7
370
    25
100
AcDbLine
 10
732.2950592901
 20
-183.9670792797
 30
0.0
 11
732.2950592901
 21
-37.2462973573
 31
0.0
  0
LINE
  5
B3
330
1F
100
AcDbEntity
  8
0
  6
Continuous
 62
     7
370
    25
100
AcDbLine
 10
552.2950521375
 20
394.0329297803
 30
0.0
 11
552.2950521375
 21
-183.9670792797
 31
0.0
  0
LINE
  5
B4
330
1F
100
AcDbEntity
  8
0
  6
Continuous
 62
     7
370
    25
100
AcDbLine
 10
857.2555116083
 20
342.2726138852
 30
0.0
 11
732.2950592901
 21
217.3121317647
 31
0.0
  0
LINE
  5
B5
330
1F
100
AcDbEntity
  8
0
  6
Continuous
 62
     7
370
    25
100
AcDbLine
 10
732.2950592901
 20
-37.2462973573
 30
0.0
 11
984.5347336198
 21
214.9933918736
 31
0.0
  0
LINE
  5
B6
330
1F
100
AcDbEntity
  8
0
  6
Continuous
 62
     7
370
    25
100
AcDbLine
 10
642.2950557138
 20
-183.9670792797
 30
0.0
 11
732.2950592901
 21
-183.9670792797
 31
0.0
  0
LINE
  5
B7
330
1F
100
AcDbEntity
  8
0
  6
Continuous
 62
     7
370
    25
100
AcDbLine
 10
552.2950521375
 20
-183.9670792797
 30
0.0
 11
642.2950557138
 21
-183.9670792797
 31
0.0
  0
LINE
  5
B8
330
1F
100
AcDbEntity
  8
0
  6
Continuous
 62
     7
370
    25
100
AcDbLine
 10
642.2950557138
 20
394.0329297803
 30
0.0
 11
732.2950592901
 21
394.0329297803
 31
0.0
  0
LINE
  5
B9
330
1F
100
AcDbEntity
  8
0
  6
Continuous
 62
     7
370
    25
100
AcDbLine
 10
552.2950521375
 20
394.0329297803
 30
0.0
 11
642.2950557138
 21
394.0329297803
 31
0.0
  0
LWPOLYLINE
  5
BA
330
1F
100
AcDbEntity
  8
0
  6
Continuous
 62
     7
370
    25
100
AcDbPolyline
 90
       42
 70
   128
 43
0.0
 10
642.2950557138
 20
0.032921078
 10
645.7848392132
 20
8.4580078147
 10
649.2693737785
 20
16.8704136632
 10
652.7434183921
 20
25.2575024388
 10
656.2017469372
 20
33.6066379569
 10
659.6391598399
 20
41.9052883408
 10
663.0504845346
 20
50.1409515164
 10
666.4305912967
 20
58.3012595198
 10
669.7743951048
 20
66.3739188931
 10
673.0768686797
 20
74.3467851899
 10
676.3330443467
 20
82.2078927777
 10
679.5380196239
 20
89.9453803322
 10
682.6869814361
 20
97.5476547501
 10
685.7751912142
 20
105.0032421372
 10
688.7979997958
 20
112.3009666226
 10
691.7508623268
 20
119.429801347
 10
694.6293419863
 20
126.3790770791
 10
697.4291062619
 20
133.1383034012
 10
700.1459418501
 20
139.6973177216
 10
702.7757621075
 20
146.0462554715
 10
705.3146145011
 20
152.17560971
 10
707.7586806084
 20
158.0761119149
 10
710.1042872931
 20
163.7388809941
 10
712.3478955294
 20
169.1554530881
 10
714.4861451055
 20
174.3176325581
 10
716.5158024694
 20
179.2176708005
 10
718.4338352348
 20
183.8482066414
 10
720.2373451258
 20
188.2022365353
 10
721.9236201311
 20
192.2732635758
 10
723.4901270534
 20
196.0551484845
 10
724.9345040585
 20
199.5421990178
 10
726.2545904781
 20
202.7291699669
 10
727.4483895565
 20
205.6112631581
 10
728.5141131545
 20
208.1841274521
 10
729.4501519467
 20
210.4439481518
 10
730.2551052238
 20
212.3872681878
 10
730.9277510907
 20
214.0111669324
 10
731.4670911695
 20
215.3132601998
 10
731.8723058964
 20
216.2915512345
 10
732.1427917744
 20
216.9445499203
 10
732.278131571
 20
217.2712727807
 10
732.2950592901
 20
217.3121317647
  0
LWPOLYLINE
  5
BB
330
1F
100
AcDbEntity
  8
0
  6
Continuous
 62
     7
370
    25
100
AcDbPolyline
 90
       27
 70
   128
 43
0.0
 10
732.2950592901
 20
-37.2462973573
 10
732.1308559443
 20
-37.1782884576
 10
731.6388568546
 20
-36.974485276
 10
730.8208501603
 20
-36.6356626727
 10
729.6798160936
 20
-36.163027642
 10
728.2199344303
 20
-35.5583236196
 10
726.4465174343
 20
-34.8237559774
 10
724.3660396601
 20
-33.9619920232
 10
721.9861007
 20
-32.9761908033
 10
719.3153730298
 20
-31.8699434974
 10
716.363602009
 20
-30.6472734191
 10
713.1415686275
 20
-29.312665818
 10
709.6610224511
 20
-27.8709784725
 10
705.9346667196
 20
-26.3274714925
 10
701.9760950173
 20
-24.6877775171
 10
697.7997540201
 20
-22.9578719118
 10
693.4208838905
 20
-21.1440876701
 10
688.8554586734
 20
-19.2530260065
 10
684.1201415922
 20
-17.2916010597
 10
679.232206818
 20
-15.2669504859
 10
674.2094947661
 20
-13.1864801624
 10
669.0703301395
 20
-11.0577598789
 10
663.8334660496
 20
-8.8885829427
 10
658.5180095102
 20
-6.6868469694
 10
653.1433571766
 20
-4.4605985858
 10
647.729120374
 20
-2.2179440238
 10
642.2950557138
 20
0.032921078
  0
LWPOLYLINE
  5
BC
330
1F
100
AcDbEntity
  8
0
  6
Continuous
 62
     7
370
    25
100
AcDbPolyline
 90
       51
 70
   128
 43
0.0
 10
857.2555116083
 20
342.2726138852
 10
857.3810985948
 20
342.1470268986
 10
857.7573380138
 20
341.7708023808
 10
858.3827546503
 20
341.1453708432
 10
859.2548749114
 20
340.2732356808
 10
860.3702566291
 20
339.1578539631
 10
861.7245188619
 20
337.8035768292
 10
863.3122822906
 20
336.2158283017
 10
865.1273182298
 20
334.4008072636
 10
867.1624294187
 20
332.3656662724
 10
869.4095990325
 20
330.1185115597
 10
871.8599608804
 20
327.668164613
 10
874.5038441087
 20
325.0242813847
 10
877.3308179046
 20
322.1972926877
 10
880.3297063972
 20
319.1984041951
 10
883.4887078668
 20
316.0394176266
 10
886.7953202392
 20
312.7327903531
 10
890.2365049983
 20
309.2916055939
 10
893.7987020875
 20
305.7294234059
 10
897.4678150083
 20
302.0603104851
 10
901.2294045354
 20
298.298720958
 10
905.0685993101
 20
294.4595261834
 10
908.9702597524
 20
290.557865741
 10
912.9189780618
 20
286.6091474316
 10
916.8991676237
 20
282.6289578698
 10
920.895122614
 20
278.6330028794
 10
924.8910776044
 20
274.6370180867
 10
928.8712969686
 20
270.6568285248
 10
932.820015278
 20
266.7081102154
 10
936.721645918
 20
262.8064795754
 10
940.5608406927
 20
258.9672848008
 10
944.3224302198
 20
255.2056952736
 10
947.9915431405
 20
251.5365525506
 10
951.5537551309
 20
247.9743703625
 10
954.99493989
 20
244.5331856034
 10
958.3015373613
 20
241.2265583298
 10
961.4605537321
 20
238.0675717614
 10
964.4594422246
 20
235.0686832688
 10
967.2864011194
 20
232.2417243741
 10
969.9302843477
 20
229.5978411458
 10
972.3806610967
 20
227.1474643967
 10
974.6278158094
 20
224.9002798817
 10
976.6629568006
 20
222.8651686928
 10
978.4779778387
 20
221.0501476548
 10
980.0657263662
 20
219.4623693249
 10
981.4200035001
 20
218.1081219933
 10
982.5353852178
 20
216.9927402756
 10
983.4074905778
 20
216.1206051133
 10
984.0329221155
 20
215.495203378
 10
984.4091466333
 20
215.1189490578
 10
984.5347336198
 20
214.9933918736
  0
LINE
  5
BD
330
1F
100
AcDbEntity
  8
0
  6
Continuous
 62
     7
370
    25
100
AcDbLine
 10
-269.4066993174
 20
-183.9670792797
 30
0.0
 11
-269.4066993174
 21
394.0329297803
 31
0.0
  0
LINE
  5
BE
330
1F
100
AcDbEntity
  8
0
  6
Continuous
 62
     7
370
    25
100
AcDbLine
 10
-449.40670647
 20
-37.2462973573
 30
0.0
 11
-449.40670647
 21
-183.9670792797
 31
0.0
  0
LINE
  5
BF
330
1F
100
AcDbEntity
  8
0
  6
Continuous
 62
     7
370
    25
100
AcDbLine
 10
-449.40670647
 20
394.0329297803
 30
0.0
 11
-449.40670647
 21
217.3121317647
 31
0.0
  0
LINE
  5
C0
330
1F
100
AcDbEntity
  8
0
  6
Continuous
 62
     7
370
    25
100
AcDbLine
 10
-701.6463807997
 20
214.9933918736
 30
0.0
 11
-449.40670647
 21
-37.2462973573
 31
0.0
  0
LINE
  5
C1
330
1F
100
AcDbEntity
  8
0
  6
Continuous
 62
     7
370
    25
100
AcDbLine
 10
-449.40670647
 20
217.3121317647
 30
0.0
 11
-574.3671587882
 21
342.2726138852
 31
0.0
  0
LINE
  5
C2
330
1F
100
AcDbEntity
  8
0
  6
Continuous
 62
     7
370
    25
100
AcDbLine
 10
-449.40670647
 20
-183.9670792797
 30
0.0
 11
-269.4066993174
 21
-183.9670792797
 31
0.0
  0
LINE
  5
C3
330
1F
100
AcDbEntity
  8
0
  6
Continuous
 62
     7
370
    25
100
AcDbLine
 10
-449.40670647
 20
394.0329297803
 30
0.0
 11
-269.4066993174
 21
394.0329297803
 31
0.0
  0
LWPOLYLINE
  5
C4
330
1F
100
AcDbEntity
  8
0
  6
Continuous
 62
     7
370
    25
100
AcDbPolyline
 90
       42
 70
   128
 43
0.0
 10
-449.40670647
 20
217.3121317647
 10
-449.3897787509
 20
217.2712727807
 10
-449.2544389543
 20
216.9445499203
 10
-448.9839530763
 20
216.2915512345
 10
-448.5787383494
 20
215.3132601998
 10
-448.0393982706
 20
214.0111669324
 10
-447.3667524037
 20
212.3872681878
 10
-446.5617991266
 20
210.4439481518
 10
-445.6257603345
 20
208.1841274521
 10
-444.5600367365
 20
205.6112631581
 10
-443.366237658
 20
202.7291699669
 10
-442.0461512384
 20
199.5421990178
 10
-440.6017742333
 20
196.0551484845
 10
-439.0352673111
 20
192.2732635758
 10
-437.3489923057
 20
188.2022365353
 10
-435.5454824147
 20
183.8482066414
 10
-433.6274496493
 20
179.2176708005
 10
-431.5977922854
 20
174.3176325581
 10
-429.4595427093
 20
169.1554530881
 10
-427.215934473
 20
163.7388809941
 10
-424.8703277883
 20
158.0761119149
 10
-422.4262616811
 20
152.17560971
 10
-419.8874092874
 20
146.0462554715
 10
-417.25758903
 20
139.6973177216
 10
-414.5407534418
 20
133.1383034012
 10
-411.7409891662
 20
126.3790770791
 10
-408.8625095067
 20
119.429801347
 10
-405.9096469757
 20
112.3009666226
 10
-402.8868383941
 20
105.0032421372
 10
-399.7986286161
 20
97.5476547501
 10
-396.6496668038
 20
89.9453803322
 10
-393.4446915266
 20
82.2078927777
 10
-390.1885158596
 20
74.3467851899
 10
-386.8860422847
 20
66.3739188931
 10
-383.5422384766
 20
58.3012595198
 10
-380.1621317146
 20
50.1409515164
 10
-376.7508070198
 20
41.9052883408
 10
-373.3133941171
 20
33.6066379569
 10
-369.855065572
 20
25.2575024388
 10
-366.3810209585
 20
16.8704136632
 10
-362.8964863931
 20
8.4580078147
 10
-359.4067028937
 20
0.032921078
  0
LWPOLYLINE
  5
C5
330
1F
100
AcDbEntity
  8
0
  6
Continuous
 62
     7
370
    25
100
AcDbPolyline
 90
       27
 70
   128
 43
0.0
 10
-359.4067028937
 20
0.032921078
 10
-364.8407675539
 20
-2.2179440238
 10
-370.2550043565
 20
-4.4605985858
 10
-375.6296566901
 20
-6.6868469694
 10
-380.9451132295
 20
-8.8885829427
 10
-386.1819773195
 20
-11.0577598789
 10
-391.321141946
 20
-13.1864801624
 10
-396.3438539979
 20
-15.2669504859
 10
-401.2317887721
 20
-17.2916010597
 10
-405.9671058533
 20
-19.2530260065
 10
-410.5325310704
 20
-21.1440876701
 10
-414.9114012
 20
-22.9578719118
 10
-419.0877421972
 20
-24.6877775171
 10
-423.0463138995
 20
-26.3274714925
 10
-426.772669631
 20
-27.8709784725
 10
-430.2532158074
 20
-29.312665818
 10
-433.4752491889
 20
-30.6472734191
 10
-436.4270202098
 20
-31.8699434974
 10
-439.09774788
 20
-32.9761908033
 10
-441.47768684
 20
-33.9619920232
 10
-443.5581646142
 20
-34.8237559774
 10
-445.3315816102
 20
-35.5583236196
 10
-446.7914632735
 20
-36.163027642
 10
-447.9324973402
 20
-36.6356626727
 10
-448.7505040345
 20
-36.974485276
 10
-449.2425031242
 20
-37.1782884576
 10
-449.40670647
 20
-37.2462973573
  0
LWPOLYLINE
  5
C6
330
1F
100
AcDbEntity
  8
0
  6
Continuous
 62
     7
370
    25
100
AcDbPolyline
 90
       51
 70
   128
 43
0.0
 10
-701.6463807997
 20
214.9933918736
 10
-701.5207938132
 20
215.1189490578
 10
-701.1445692954
 20
215.495203378
 10
-700.5191377577
 20
216.1206051133
 10
-699.6470323977
 20
216.9927402756
 10
-698.53165068
 20
218.1081219933
 10
-697.1773735461
 20
219.4623693249
 10
-695.5896250186
 20
221.0501476548
 10
-693.7746039805
 20
222.8651686928
 10
-691.7394629893
 20
224.9002798817
 10
-689.4923082766
 20
227.1474643967
 10
-687.0419315276
 20
229.5978411458
 10
-684.3980482993
 20
232.2417243741
 10
-681.5710894046
 20
235.0686832688
 10
-678.572200912
 20
238.0675717614
 10
-675.4131845412
 20
241.2265583298
 10
-672.10658707
 20
244.5331856034
 10
-668.6654023108
 20
247.9743703625
 10
-665.1031903205
 20
251.5365525506
 10
-661.4340773997
 20
255.2056952736
 10
-657.6724878726
 20
258.9672848008
 10
-653.8332930979
 20
262.8064795754
 10
-649.9316624579
 20
266.7081102154
 10
-645.9829441485
 20
270.6568285248
 10
-642.0027247843
 20
274.6370180867
 10
-638.006769794
 20
278.6330028794
 10
-634.0108148036
 20
282.6289578698
 10
-630.0306252417
 20
286.6091474316
 10
-626.0819069323
 20
290.557865741
 10
-622.18024649
 20
294.4595261834
 10
-618.3410517153
 20
298.298720958
 10
-614.5794621882
 20
302.0603104851
 10
-610.9103492675
 20
305.7294234059
 10
-607.3481521783
 20
309.2916055939
 10
-603.9069674191
 20
312.7327903531
 10
-600.6003550467
 20
316.0394176266
 10
-597.4413535771
 20
319.1984041951
 10
-594.4424650845
 20
322.1972926877
 10
-591.6154912886
 20
325.0242813847
 10
-588.9716080603
 20
327.668164613
 10
-586.5212462125
 20
330.1185115597
 10
-584.2740765986
 20
332.3656662724
 10
-582.2389654097
 20
334.4008072636
 10
-580.4239294705
 20
336.2158283017
 10
-578.8361660418
 20
337.8035768292
 10
-577.481903809
 20
339.1578539631
 10
-576.3665220914
 20
340.2732356808
 10
-575.4944018302
 20
341.1453708432
 10
-574.8689851937
 20
341.7708023808
 10
-574.4927457747
 20
342.1470268986
 10
-574.3671587882
 20
342.2726138852
  0
LINE
  5
C7
330
1F
100
AcDbEntity
  8
0
  6
Continuous
 62
     7
370
    25
100
AcDbLine
 10
444.4140322508
 20
-423.7617178713
 30
0.0
 11
629.3563291008
 21
-744.0911502508
 31
0.0
  0
LINE
  5
C8
330
1F
100
AcDbEntity
  8
0
  6
Continuous
 62
     7
370
    25
100
AcDbLine
 10
734.5721063134
 20
-566.33023215
 30
0.0
 11
600.2986084976
 21
-333.7617155475
 31
0.0
  0
LINE
  5
C9
330
1F
100
AcDbEntity
  8
0
  6
Continuous
 62
     7
370
    25
100
AcDbLine
 10
809.3563284436
 20
-870.2192345751
 30
0.0
 11
809.3563284436
 21
-398.2586379074
 31
0.0
  0
LINE
  5
CA
330
1F
100
AcDbEntity
  8
0
  6
Continuous
 62
     7
370
    25
100
AcDbLine
 10
629.3563264666
 20
-741.5000612473
 30
0.0
 11
629.3563264666
 21
-870.2192345751
 31
0.0
  0
ELLIPSE
  5
CB
330
1F
100
AcDbEntity
  8
0
  6
Continuous
 62
     7
370
    25
100
AcDbEllipse
 10
719.3563274551
 20
-719.9757251882
 30
0.0
 11
89.67552842809562
 21
24.02848548421548
 31
0.0
210
0.0
220
0.0
230
1.0
 40
0.3177652438
 41
0.7004580896382421
 42
3.056652579830583
  0
ELLIPSE
  5
CC
330
1F
100
AcDbEntity
  8
0
  6
Continuous
 62
     7
370
    25
100
AcDbEllipse
 10
719.3563274551
 20
-719.9757251882
 30
0.0
 11
-58.01111873217337
 21
216.5004419621047
 31
0.0
210
0.0
220
0.0
230
1.0
 40
0.3178248929
 41
4.797329054143887
 42
5.412847070022956
  0
LWPOLYLINE
  5
CD
330
1F
100
AcDbEntity
  8
0
  6
Continuous
 62
     7
370
    25
100
AcDbPolyline
 90
      101
 70
   128
 43
0.0
 10
567.3563314052
 20
-352.7753183151
 10
563.2715638854
 20
-355.1334210765
 10
559.0253284962
 20
-357.5847583489
 10
554.634376305
 20
-360.1196962534
 10
550.1160405325
 20
-362.7282038718
 10
545.488153247
 20
-365.3999743458
 10
540.7689640338
 20
-368.1244961677
 10
535.9771202392
 20
-370.8909672375
 10
531.1315076026
 20
-373.6885085581
 10
526.2512739641
 20
-376.5061018639
 10
521.3556698969
 20
-379.3325599673
 10
516.4640118283
 20
-382.1567670578
 10
511.5956082834
 20
-384.9675874452
 10
506.7696676883
 20
-387.753930957
 10
502.0052509554
 20
-390.5047681448
 10
497.3211345056
 20
-393.2092580456
 10
492.7358313421
 20
-395.8567481731
 10
488.2674329997
 20
-398.4367562743
 10
483.9335515927
 20
-400.9391132926
 10
479.7513250833
 20
-403.3539481571
 10
475.737227621
 20
-405.6717364604
 10
471.9071169575
 20
-407.8833217438
 10
468.276102738
 20
-409.9799793857
 10
464.8585254277
 20
-411.9534287672
 10
461.6678667498
 20
-413.7958849868
 10
458.7167180753
 20
-415.5000771166
 10
456.0167330078
 20
-417.0592999172
 10
453.5785325531
 20
-418.4673469198
 10
451.4117788762
 20
-419.7187111878
 10
449.5250330558
 20
-420.8084241124
 10
447.9257024004
 20
-421.7322075087
 10
446.6201089374
 20
-422.486409735
 10
445.6134261923
 20
-423.06806654
 10
444.9095896273
 20
-423.4748311113
 10
444.5114178127
 20
-423.7051474526
 10
444.4204754503
 20
-423.7581104814
 10
444.6370786415
 20
-423.6334629876
 10
445.1604265962
 20
-423.3317385969
 10
445.9884330453
 20
-422.8541157859
 10
447.1178210714
 20
-422.2024847997
 10
448.5441336453
 20
-421.3794172424
 10
450.2617705045
 20
-420.3881691222
 10
452.2639012252
 20
-419.2326093876
 10
454.5426759571
 20
-417.9173415897
 10
457.0890937137
 20
-416.4475609381
 10
459.8930563736
 20
-414.8290231272
 10
462.9435557068
 20
-413.0681553577
 10
466.2285377145
 20
-411.1719156735
 10
469.7350066796
 20
-409.1477328871
 10
473.4491697165
 20
-407.0036664651
 10
477.3563304167
 20
-404.7481029343
 10
481.4410979365
 20
-402.3900245078
 10
485.687322789
 20
-399.9386568179
 10
490.0782855169
 20
-397.4037493308
 10
494.5966107526
 20
-394.7952356298
 10
499.2244980381
 20
-392.1234651557
 10
503.9436977881
 20
-389.3989737513
 10
508.7355310459
 20
-386.6324722641
 10
513.5811331458
 20
-383.8349248607
 10
518.4613878577
 20
-381.0173680552
 10
523.3569813883
 20
-378.1908795343
 10
528.2486499936
 20
-375.3666541917
 10
533.1170535385
 20
-372.5558338042
 10
537.9429835968
 20
-369.7695085446
 10
542.7074003297
 20
-367.0186713567
 10
547.3915273163
 20
-364.3141875387
 10
551.976819943
 20
-361.6666913284
 10
556.4452182854
 20
-359.0866832272
 10
560.7791102292
 20
-356.5843322916
 10
564.9613367386
 20
-354.1694730923
 10
568.9754342009
 20
-351.851684789
 10
572.8055448644
 20
-349.6400995057
 10
576.4365380104
 20
-347.5434540331
 10
579.8541153207
 20
-345.5700046516
 10
583.044795072
 20
-343.7275605975
 10
585.9959437465
 20
-342.0233441328
 10
588.695928814
 20
-340.4641456671
 10
591.1341081953
 20
-339.056086499
 10
593.3008618722
 20
-337.804722231
 10
595.1876287661
 20
-336.7149971371
 10
596.7869594214
 20
-335.7912137408
 10
598.0925528845
 20
-335.0370115144
 10
599.0992356295
 20
-334.4553790442
 10
599.8030616579
 20
-334.0486083902
 10
600.2012334725
 20
-333.8182920489
 10
600.2921863716
 20
-333.7653351028
 10
600.0755726436
 20
-333.8899765139
 10
599.552224689
 20
-334.1917009046
 10
598.7242287765
 20
-334.6693054635
 10
597.5948407504
 20
-335.3209364497
 10
596.1685176398
 20
-336.1440222591
 10
594.4508913174
 20
-337.1353007969
 10
592.4487395232
 20
-338.2908240312
 10
590.169975328
 20
-339.6060979118
 10
587.6235681081
 20
-341.075908981
 10
584.8195949115
 20
-342.6944163743
 10
581.7690955784
 20
-344.4552841438
 10
578.4841241073
 20
-346.3515299108
 10
574.9776446056
 20
-348.3756822796
 10
571.2634921054
 20
-350.5197791192
 10
567.3563314052
 20
-352.7753183151
  0
LWPOLYLINE
  5
CE
330
1F
100
AcDbEntity
  8
0
  6
Continuous
 62
     7
370
    25
100
AcDbPolyline
 90
       95
 70
   128
 43
0.0
 10
562.006326359
 20
-355.8648023357
 10
558.1724850409
 20
-358.0780606022
 10
554.1786707494
 20
-360.3836781263
 10
550.0427366263
 20
-362.7714212878
 10
545.7831469423
 20
-365.2305088483
 10
541.4189329752
 20
-367.7500632754
 10
536.9695757887
 20
-370.318837734
 10
532.4549528902
 20
-372.9252590452
 10
527.8952302296
 20
-375.5577942253
 10
523.3107647347
 20
-378.2045808976
 10
518.7220345056
 20
-380.8539056167
 10
514.1495360816
 20
-383.4938616612
 10
509.6136975132
 20
-386.1127277371
 10
505.1347703612
 20
-388.6987139859
 10
500.7327533052
 20
-391.2403346054
 10
496.4273210209
 20
-393.7262055681
 10
492.2376713978
 20
-396.145266676
 10
488.1825755886
 20
-398.4866918209
 10
484.2800882495
 20
-400.7400076283
 10
480.5476423707
 20
-402.8951482027
 10
477.001938641
 20
-404.9425190074
 10
473.6588032019
 20
-406.8729573309
 10
470.5331771112
 20
-408.6778600399
 10
467.6389846341
 20
-410.3491379627
 10
464.9891701214
 20
-411.8793162661
 10
462.5955768375
 20
-413.261604426
 10
460.4688837401
 20
-414.489811062
 10
458.618600212
 20
-415.5584443213
 10
457.0529870354
 20
-416.4627331808
 10
455.7790405873
 20
-417.1986365746
 10
454.8024401553
 20
-417.7628738235
 10
454.1275426701
 20
-418.1529276807
 10
453.7573879731
 20
-418.3670412975
 10
453.6935934495
 20
-418.4042790712
 10
453.9364752008
 20
-418.2644566853
 10
454.4849453113
 20
-417.9482247709
 10
455.3365276539
 20
-417.4569381201
 10
456.4874500854
 20
-416.7928701338
 10
457.9325417145
 20
-415.9589071371
 10
459.6653830492
 20
-414.9588267033
 10
461.6782138011
 20
-413.7970832265
 10
463.9620461548
 20
-412.4788641943
 10
466.5066713533
 20
-411.0100620633
 10
469.3007466259
 20
-409.3972240728
 10
472.331787286
 20
-407.6475811573
 10
475.5862306093
 20
-405.7688893963
 10
479.0495741287
 20
-403.7695935145
 10
482.7063249261
 20
-401.658612831
 10
486.5401767809
 20
-399.4453606473
 10
490.5339805357
 20
-397.1397370404
 10
494.6699251956
 20
-394.7520486312
 10
498.9295043429
 20
-392.2929063184
 10
503.29371831
 20
-389.7733518913
 10
507.7430860332
 20
-387.2046078502
 10
512.2577089317
 20
-384.5981622042
 10
516.8174315923
 20
-381.9656513589
 10
521.4018865504
 20
-379.3188342692
 10
525.9906273162
 20
-376.6695399675
 10
530.5631152036
 20
-374.0295535056
 10
535.0989643087
 20
-371.4107421819
 10
539.577880924
 20
-368.8247255156
 10
543.97989798
 20
-366.2831048961
 10
548.285340801
 20
-363.7972156813
 10
552.4749693506
 20
-361.3781667428
 10
556.5300862333
 20
-359.0367537634
 10
560.4325735724
 20
-356.7834379559
 10
564.1649983777
 20
-354.6282852161
 10
567.7107021075
 20
-352.5809144115
 10
571.0538375466
 20
-350.650476088
 10
574.1794847106
 20
-348.8455855444
 10
577.0736771877
 20
-347.1743076215
 10
579.7234917004
 20
-345.6441293181
 10
582.1170849844
 20
-344.2618411582
 10
584.2437570083
 20
-343.0336223568
 10
586.0940405364
 20
-341.9649890975
 10
587.659653713
 20
-341.060700238
 10
588.9336212346
 20
-340.3248090097
 10
589.9102216665
 20
-339.7605717607
 10
590.5850980783
 20
-339.3705057382
 10
590.9552738487
 20
-339.1563799519
 10
591.0190578356
 20
-339.1191604303
 10
590.7761760844
 20
-339.2589828162
 10
590.2277165105
 20
-339.5752451482
 10
589.3761236313
 20
-340.0664770466
 10
588.2252117365
 20
-340.7305754504
 10
586.7801095707
 20
-341.5645080296
 10
585.0472787726
 20
-342.5646188809
 10
583.0344480207
 20
-343.7263380229
 10
580.750615667
 20
-345.0445813899
 10
578.2059799318
 20
-346.5133531034
 10
575.4119046592
 20
-348.126191094
 10
572.3808745359
 20
-349.8758887618
 10
569.1264206758
 20
-351.7545257704
 10
565.6630876932
 20
-353.7538277349
 10
562.006326359
 20
-355.8648023357
  0
LWPOLYLINE
  5
CF
330
1F
100
AcDbEntity
  8
0
  6
Continuous
 62
     7
370
    25
100
AcDbPolyline
 90
      101
 70
   128
 43
0.0
 10
655.7167146195
 20
-906.957601067
 10
651.846332313
 20
-904.5782832563
 10
648.2423780166
 20
-902.0633676746
 10
644.9190739868
 20
-899.4227799811
 10
641.8895440279
 20
-896.6669370145
 10
639.1657407226
 20
-893.8067169492
 10
636.7584115173
 20
-890.8534093031
 10
634.6770578923
 20
-887.8186670365
 10
632.9298971657
 20
-884.7144662538
 10
631.5238177133
 20
-881.5530621037
 10
630.4643776507
 20
-878.3469271924
 10
629.7557521499
 20
-875.1087150865
 10
629.4007387082
 20
-871.8512086105
 10
629.4007387082
 20
-868.5872605398
 10
629.7557521499
 20
-865.3297540637
 10
630.4643776507
 20
-862.0915419578
 10
631.5238177133
 20
-858.8854070465
 10
632.9298971657
 20
-855.7240028965
 10
634.6770578923
 20
-852.6198021137
 10
636.7584115173
 20
-849.5850598471
 10
639.1657407226
 20
-846.6317522011
 10
641.8895440279
 20
-843.7715321357
 10
644.9190739868
 20
-841.0156891691
 10
648.2423780166
 20
-838.3751014757
 10
651.846332313
 20
-835.8601858939
 10
655.7167146195
 20
-833.4808680833
 10
659.838260533
 20
-831.2465439366
 10
664.194694126
 20
-829.1660254064
 10
668.7688217892
 20
-827.2475228265
 10
673.5425990737
 20
-825.4986124078
 10
678.4971823872
 20
-823.9261942295
 10
683.6130155917
 20
-822.5364726604
 10
688.8699129811
 20
-821.3349327881
 10
694.2471290863
 20
-820.3263183697
 10
699.7234350666
 20
-819.5146059796
 10
705.2772253936
 20
-818.9030042497
 10
710.8865810721
 20
-818.4939234557
 10
716.5293592014
 20
-818.2889785581
 10
722.1832957088
 20
-818.2889785581
 10
727.8260738382
 20
-818.4939234557
 10
733.4354295166
 20
-818.9030042497
 10
738.9892198437
 20
-819.5146059796
 10
744.4655258239
 20
-820.3263183697
 10
749.8427419291
 20
-821.3349327881
 10
755.0996393185
 20
-822.5364726604
 10
760.2154725231
 20
-823.9261942295
 10
765.1700558365
 20
-825.4986124078
 10
769.9438331211
 20
-827.2475228265
 10
774.5179607842
 20
-829.1660254064
 10
778.8743943772
 20
-831.2465439366
 10
782.9959402907
 20
-833.4808680833
 10
786.8663225972
 20
-835.8601858939
 10
790.4702768936
 20
-838.3751014757
 10
793.7935809234
 20
-841.0156891691
 10
796.8231108823
 20
-843.7715321357
 10
799.5469141876
 20
-846.6317522011
 10
801.9542433929
 20
-849.5850598471
 10
804.035597018
 20
-852.6198021137
 10
805.7827577445
 20
-855.7240028965
 10
807.1888371969
 20
-858.8854070465
 10
808.2482772596
 20
-862.0915419578
 10
808.9569027603
 20
-865.3297540637
 10
809.311916202
 20
-868.5872605398
 10
809.311916202
 20
-871.8512086105
 10
808.9569027603
 20
-875.1087150865
 10
808.2482772596
 20
-878.3469271924
 10
807.1888371969
 20
-881.5530621037
 10
805.7827577445
 20
-884.7144662538
 10
804.035597018
 20
-887.8186670365
 10
801.9542433929
 20
-890.8534093031
 10
799.5469141876
 20
-893.8067169492
 10
796.8231108823
 20
-896.6669370145
 10
793.7935809234
 20
-899.4227799811
 10
790.4702768936
 20
-902.0633676746
 10
786.8663225972
 20
-904.5782832563
 10
782.9959402907
 20
-906.957601067
 10
778.8743943772
 20
-909.1919252136
 10
774.5179607842
 20
-911.2724437439
 10
769.9438331211
 20
-913.1909463238
 10
765.1700558365
 20
-914.9398567425
 10
760.2154725231
 20
-916.5122749207
 10
755.0996393185
 20
-917.9019964899
 10
749.8427419291
 20
-919.1035363621
 10
744.4655258239
 20
-920.1121507806
 10
738.9892198437
 20
-920.9238631707
 10
733.4354295166
 20
-921.5354649006
 10
727.8260738382
 20
-921.9445456946
 10
722.1832957088
 20
-922.1494905921
 10
716.5293592014
 20
-922.1494905921
 10
710.8865810721
 20
-921.9445456946
 10
705.2772253936
 20
-921.5354649006
 10
699.7234350666
 20
-920.9238631707
 10
694.2471290863
 20
-920.1121507806
 10
688.8699129811
 20
-919.1035363621
 10
683.6130155917
 20
-917.9019964899
 10
678.4971823872
 20
-916.5122749207
 10
673.5425990737
 20
-914.9398567425
 10
668.7688217892
 20
-913.1909463238
 10
664.194694126
 20
-911.2724437439
 10
659.838260533
 20
-909.1919252136
 10
655.7167146195
 20
-906.957601067
  0
LWPOLYLINE
  5
D0
330
1F
100
AcDbEntity
  8
0
  6
Continuous
 62
     7
370
    25
100
AcDbPolyline
 90
       49
 70
   128
 43
0.0
 10
631.3137894305
 20
-387.4815673139
 10
631.5238177133
 20
-386.9248103788
 10
632.9298971657
 20
-383.7634062288
 10
634.6770578923
 20
-380.659205446
 10
636.7584115173
 20
-377.6244631794
 10
639.1657407226
 20
-374.6711555333
 10
641.8895440279
 20
-371.810935468
 10
644.9190739868
 20
-369.0550925014
 10
648.2423780166
 20
-366.4145048079
 10
651.846332313
 20
-363.8995892262
 10
655.7167146195
 20
-361.5202714155
 10
659.838260533
 20
-359.2859472689
 10
664.194694126
 20
-357.2054287387
 10
668.7688217892
 20
-355.2869261588
 10
673.5425990737
 20
-353.5380157401
 10
678.4971823872
 20
-351.9655975618
 10
683.6130155917
 20
-350.5758759926
 10
688.8699129811
 20
-349.3743361204
 10
694.2471290863
 20
-348.3657217019
 10
699.7234350666
 20
-347.5540093118
 10
705.2772253936
 20
-346.9424075819
 10
710.8865810721
 20
-346.5333267879
 10
716.5293592014
 20
-346.3283818904
 10
722.1832957088
 20
-346.3283818904
 10
727.8260738382
 20
-346.5333267879
 10
733.4354295166
 20
-346.9424075819
 10
738.9892198437
 20
-347.5540093118
 10
744.4655258239
 20
-348.3657217019
 10
749.8427419291
 20
-349.3743361204
 10
755.0996393185
 20
-350.5758759926
 10
760.2154725231
 20
-351.9655975618
 10
765.1700558365
 20
-353.5380157401
 10
769.9438331211
 20
-355.2869261588
 10
774.5179607842
 20
-357.2054287387
 10
778.8743943772
 20
-359.2859472689
 10
782.9959402907
 20
-361.5202714155
 10
786.8663225972
 20
-363.8995892262
 10
790.4702768936
 20
-366.4145048079
 10
793.7935809234
 20
-369.0550925014
 10
796.8231108823
 20
-371.810935468
 10
799.5469141876
 20
-374.6711555333
 10
801.9542433929
 20
-377.6244631794
 10
804.035597018
 20
-380.659205446
 10
805.7827577445
 20
-383.7634062288
 10
807.1888371969
 20
-386.9248103788
 10
808.2482772596
 20
-390.1309452901
 10
808.9569027603
 20
-393.369157396
 10
809.311916202
 20
-396.6266638721
 10
809.3563284436
 20
-398.2586379074
  0
LWPOLYLINE
  5
D1
330
1F
100
AcDbEntity
  8
0
  6
Continuous
 62
     7
370
    25
100
AcDbPolyline
 90
       95
 70
   128
 43
0.0
 10
663.2827588135
 20
-902.5898167247
 10
659.6626757743
 20
-900.3554133127
 10
656.3092038206
 20
-897.9864119758
 10
653.2373090349
 20
-895.4933989182
 10
650.4607194361
 20
-892.8875047468
 10
647.9918387098
 20
-890.1803668351
 10
645.8416816716
 20
-887.3840799002
 10
644.0198630713
 20
-884.5111287135
 10
642.5345159336
 20
-881.5743470422
 10
641.3922731187
 20
-878.58685226
 10
640.5982370294
 20
-875.5619822389
 10
640.1559532695
 20
-872.5132527705
 10
640.0673974724
 20
-869.4542769696
 10
640.3329673991
 20
-866.3987181335
 10
640.9514697668
 20
-863.3602213114
 10
641.9201544937
 20
-860.3523600805
 10
643.2346804545
 20
-857.3885650744
 10
644.8891892371
 20
-854.4820783624
 10
646.8762853867
 20
-851.645873614
 10
649.1870930405
 20
-848.8926234044
 10
651.8112941232
 20
-846.2346224202
 10
654.7371704937
 20
-843.6837448803
 10
657.951650702
 20
-841.2513810476
 10
661.4403769963
 20
-838.9483924642
 10
665.1877708476
 20
-836.7850680415
 10
669.1770963351
 20
-834.771069221
 10
673.3905306101
 20
-832.915389296
 10
677.8092588916
 20
-831.2263168202
 10
682.4135505274
 20
-829.7113977811
 10
687.1828365384
 20
-828.3773969176
 10
692.0958195953
 20
-827.2302707277
 10
697.1305477753
 20
-826.2751431379
 10
702.2645475886
 20
-825.5162834536
 10
707.474880613
 20
-824.9570736638
 10
712.738281788
 20
-824.6000198471
 10
718.0312384405
 20
-824.4467095917
 10
723.330114091
 20
-824.4978317652
 10
728.61124065
 20
-824.7531567451
 10
733.8510369556
 20
-825.2115440223
 10
739.0260904336
 20
-825.8709467636
 10
744.1132967084
 20
-826.7284194144
 10
749.0899333603
 20
-827.780132906
 10
753.9337692438
 20
-829.0213921432
 10
758.6231777572
 20
-830.4466466491
 10
763.1372079657
 20
-832.049537706
 10
767.4557011632
 20
-833.8229048186
 10
771.5593764837
 20
-835.7588229703
 10
775.4298960967
 20
-837.8486524255
 10
779.0499791359
 20
-840.0830558375
 10
782.4034510896
 20
-842.4520571744
 10
785.4753458753
 20
-844.9450702321
 10
788.2519354742
 20
-847.5509644034
 10
790.7208162004
 20
-850.2581023152
 10
792.8709732386
 20
-853.0543892501
 10
794.6927918389
 20
-855.9273404368
 10
796.1781389767
 20
-858.864122108
 10
797.3203817916
 20
-861.8516168902
 10
798.1144178808
 20
-864.8764869113
 10
798.5567016407
 20
-867.9252163798
 10
798.6452574378
 20
-870.9841921807
 10
798.3796875112
 20
-874.0397510168
 10
797.7611851434
 20
-877.0782478389
 10
796.7925004165
 20
-880.0861090697
 10
795.4779744558
 20
-883.0499040758
 10
793.8234656732
 20
-885.9563907878
 10
791.8363695235
 20
-888.7925955362
 10
789.5255618697
 20
-891.5458457458
 10
786.9013607871
 20
-894.20384673
 10
783.9754844166
 20
-896.75472427
 10
780.7610042082
 20
-899.1870881026
 10
777.2722779139
 20
-901.4900766861
 10
773.5248840626
 20
-903.6534011088
 10
769.5355585752
 20
-905.6673999293
 10
765.3221243001
 20
-907.5230798543
 10
760.9033960187
 20
-909.2121523301
 10
756.2991043828
 20
-910.7270713691
 10
751.5298183718
 20
-912.0610722327
 10
746.616835315
 20
-913.2081984226
 10
741.5821071349
 20
-914.1633260123
 10
736.4481073216
 20
-914.9221856967
 10
731.2377742973
 20
-915.4813954864
 10
725.9743731223
 20
-915.8384493032
 10
720.6814164698
 20
-915.9917595586
 10
715.3825408192
 20
-915.9406373851
 10
710.1014142603
 20
-915.6853124052
 10
704.8616179546
 20
-915.2269251279
 10
699.6865644767
 20
-914.5675223867
 10
694.5993582019
 20
-913.7100497359
 10
689.62272155
 20
-912.6583362443
 10
684.7788856665
 20
-911.4170770071
 10
680.089477153
 20
-909.9918225012
 10
675.5754469445
 20
-908.3889314443
 10
671.256953747
 20
-906.6155643317
 10
667.1532784266
 20
-904.67964618
 10
663.2827588135
 20
-902.5898167247
  0
ENDSEC
  0
SECTION
  2
OBJECTS
  0
DICTIONARY
  5
C
330
0
100
AcDbDictionary
281
     1
  3
ACAD_GROUP
350
D
  3
ACAD_LAYOUT
350
1A
  3
ACAD_MLINESTYLE
350
17
  3
ACAD_PLOTSETTINGS
350
19
  3
ACAD_PLOTSTYLENAME
350
E
  3
ACAD_SCALELIST
350
47
  0
DICTIONARY
  5
D
102
{ACAD_REACTORS
330
C
102
}
330
C
100
AcDbDictionary
281
     1
  0
DICTIONARY
  5
1A
102
{ACAD_REACTORS
330
C
102
}
330
C
100
AcDbDictionary
281
     1
  3
Layout1
350
1E
  3
Layout2
350
26
  3
Model
350
22
  0
DICTIONARY
  5
17
102
{ACAD_REACTORS
330
C
102
}
330
C
100
AcDbDictionary
281
     1
  3
Standard
350
18
  0
DICTIONARY
  5
19
102
{ACAD_REACTORS
330
C
102
}
330
C
100
AcDbDictionary
281
     1
  0
ACDBDICTIONARYWDFLT
  5
E
102
{ACAD_REACTORS
330
C
102
}
330
C
100
AcDbDictionary
281
     1
  3
Normal
350
F
100
AcDbDictionaryWithDefault
340
F
  0
DICTIONARY
  5
47
102
{ACAD_REACTORS
330
C
102
}
330
C
100
AcDbDictionary
281
     1
  3
A0
350
48
  3
A1
350
49
  3
A2
350
4A
  3
A3
350
4B
  3
A4
350
4C
  3
A5
350
4D
  3
A6
350
4E
  3
A7
350
4F
  3
A8
350
50
  3
A9
350
51
  3
B0
350
52
  3
B1
350
53
  3
B2
350
54
  3
B3
350
55
  3
B4
350
56
  3
B5
350
57
  3
B6
350
58
  3
B7
350
59
  3
B8
350
5A
  3
B9
350
5B
  3
C0
350
5C
  3
C1
350
5D
  3
C2
350
5E
  3
C3
350
5F
  3
C4
350
60
  3
C5
350
61
  3
C6
350
62
  3
C7
350
63
  3
C8
350
64
  3
C9
350
65
  3
D0
350
66
  3
D1
350
67
  3
D2
350
68
  0
LAYOUT
  5
1E
102
{ACAD_REACTORS
330
1A
102
}
330
1A
100
AcDbPlotSettings
  1

  2
none_device
  4

  6

 40
0.0
 41
0.0
 42
0.0
 43
0.0
 44
0.0
 45
0.0
 46
0.0
 47
0.0
 48
0.0
 49
0.0
140
0.0
141
0.0
142
1.0
143
1.0
 70
   688
 72
     1
 73
     0
 74
     5
  7

 75
    16
147
1.0
148
0.0
149
0.0
100
AcDbLayout
  1
Layout1
 70
     1
 71
     1
 10
0.0
 20
0.0
 11
420.0
 21
297.0
 12
0.0
 22
0.0
 32
0.0
 14
1.0000000000E+20
 24
1.0000000000E+20
 34
1.0000000000E+20
 15
-1.0000000000E+20
 25
-1.0000000000E+20
 35
-1.0000000000E+20
146
0.0
 13
0.0
 23
0.0
 33
0.0
 16
1.0
 26
0.0
 36
0.0
 17
0.0
 27
1.0
 37
0.0
 76
     0
330
1B
  0
LAYOUT
  5
26
102
{ACAD_REACTORS
330
1A
102
}
330
1A
100
AcDbPlotSettings
  1

  2
none_device
  4

  6

 40
0.0
 41
0.0
 42
0.0
 43
0.0
 44
0.0
 45
0.0
 46
0.0
 47
0.0
 48
0.0
 49
0.0
140
0.0
141
0.0
142
1.0
143
1.0
 70
   688
 72
     1
 73
     0
 74
     5
  7

 75
    16
147
1.0
148
0.0
149
0.0
100
AcDbLayout
  1
Layout2
 70
     1
 71
     2
 10
0.0
 20
0.0
 11
0.0
 21
0.0
 12
0.0
 22
0.0
 32
0.0
 14
0.0
 24
0.0
 34
0.0
 15
0.0
 25
0.0
 35
0.0
146
0.0
 13
0.0
 23
0.0
 33
0.0
 16
1.0
 26
0.0
 36
0.0
 17
0.0
 27
1.0
 37
0.0
 76
     0
330
23
  0
LAYOUT
  5
22
102
{ACAD_REACTORS
330
1A
102
}
330
1A
100
AcDbPlotSettings
  1

  2
none_device
  4
Letter_(8.50_x_11.00_Inches)
  6

 40
6.35
 41
6.35
 42
6.35000508
 43
6.35000508
 44
215.9
 45
279.4
 46
0.0
 47
0.0
 48
0.0
 49
0.0
140
0.0
141
0.0
142
1.0
143
1.0
 70
  1712
 72
     1
 73
     0
 74
     0
  7

 75
     0
147
1.0
148
0.0
149
0.0
100
AcDbLayout
  1
Model
 70
     1
 71
     0
 10
0.0
 20
0.0
 11
279.4
 21
215.9
 12
0.0
 22
0.0
 32
0.0
 14
0.0
 24
0.0
 34
0.0
 15
279.4
 25
215.9
 35
0.0
146
0.0
 13
0.0
 23
0.0
 33
0.0
 16
1.0
 26
0.0
 36
0.0
 17
0.0
 27
1.0
 37
0.0
 76
     0
330
1F
331
29
  0
MLINESTYLE
  5
18
102
{ACAD_REACTORS
330
17
102
}
330
17
100
AcDbMlineStyle
  2
Standard
 70
     0
  3

 62
   256
 51
90.0
 52
90.0
 71
     2
 49
0.5
 62
   256
  6
BYLAYER
 49
-0.5
 62
   256
  6
BYLAYER
  0
ACDBPLACEHOLDER
  5
F
102
{ACAD_REACTORS
330
E
102
}
330
E
  0
SCALE
  5
48
102
{ACAD_REACTORS
330
47
102
}
330
47
100
AcDbScale
 70
     0
300
1:1
140
1.0
141
1.0
290
     1
  0
SCALE
  5
49
102
{ACAD_REACTORS
330
47
102
}
330
47
100
AcDbScale
 70
     0
300
1:2
140
1.0
141
2.0
290
     0
  0
SCALE
  5
4A
102
{ACAD_REACTORS
330
47
102
}
330
47
100
AcDbScale
 70
     0
300
1:4
140
1.0
141
4.0
290
     0
  0
SCALE
  5
4B
102
{ACAD_REACTORS
330
47
102
}
330
47
100
AcDbScale
 70
     0
300
1:5
140
1.0
141
5.0
290
     0
  0
SCALE
  5
4C
102
{ACAD_REACTORS
330
47
102
}
330
47
100
AcDbScale
 70
     0
300
1:8
140
1.0
141
8.0
290
     0
  0
SCALE
  5
4D
102
{ACAD_REACTORS
330
47
102
}
330
47
100
AcDbScale
 70
     0
300
1:10
140
1.0
141
10.0
290
     0
  0
SCALE
  5
4E
102
{ACAD_REACTORS
330
47
102
}
330
47
100
AcDbScale
 70
     0
300
1:16
140
1.0
141
16.0
290
     0
  0
SCALE
  5
4F
102
{ACAD_REACTORS
330
47
102
}
330
47
100
AcDbScale
 70
     0
300
1:20
140
1.0
141
20.0
290
     0
  0
SCALE
  5
50
102
{ACAD_REACTORS
330
47
102
}
330
47
100
AcDbScale
 70
     0
300
1:30
140
1.0
141
30.0
290
     0
  0
SCALE
  5
51
102
{ACAD_REACTORS
330
47
102
}
330
47
100
AcDbScale
 70
     0
300
1:40
140
1.0
141
40.0
290
     0
  0
SCALE
  5
52
102
{ACAD_REACTORS
330
47
102
}
330
47
100
AcDbScale
 70
     0
300
1:50
140
1.0
141
50.0
290
     0
  0
SCALE
  5
53
102
{ACAD_REACTORS
330
47
102
}
330
47
100
AcDbScale
 70
     0
300
1:100
140
1.0
141
100.0
290
     0
  0
SCALE
  5
54
102
{ACAD_REACTORS
330
47
102
}
330
47
100
AcDbScale
 70
     0
300
2:1
140
2.0
141
1.0
290
     0
  0
SCALE
  5
55
102
{ACAD_REACTORS
330
47
102
}
330
47
100
AcDbScale
 70
     0
300
4:1
140
4.0
141
1.0
290
     0
  0
SCALE
  5
56
102
{ACAD_REACTORS
330
47
102
}
330
47
100
AcDbScale
 70
     0
300
8:1
140
8.0
141
1.0
290
     0
  0
SCALE
  5
57
102
{ACAD_REACTORS
330
47
102
}
330
47
100
AcDbScale
 70
     0
300
10:1
140
10.0
141
1.0
290
     0
  0
SCALE
  5
58
102
{ACAD_REACTORS
330
47
102
}
330
47
100
AcDbScale
 70
     0
300
100:1
140
100.0
141
1.0
290
     0
  0
SCALE
  5
59
102
{ACAD_REACTORS
330
47
102
}
330
47
100
AcDbScale
 70
     0
300
1/128" = 1'-0"
140
0.0078125
141
12.0
290
     0
  0
SCALE
  5
5A
102
{ACAD_REACTORS
330
47
102
}
330
47
100
AcDbScale
 70
     0
300
1/64" = 1'-0"
140
0.015625
141
12.0
290
     0
  0
SCALE
  5
5B
102
{ACAD_REACTORS
330
47
102
}
330
47
100
AcDbScale
 70
     0
300
1/32" = 1'-0"
140
0.03125
141
12.0
290
     0
  0
SCALE
  5
5C
102
{ACAD_REACTORS
330
47
102
}
330
47
100
AcDbScale
 70
     0
300
1/16" = 1'-0"
140
0.0625
141
12.0
290
     0
  0
SCALE
  5
5D
102
{ACAD_REACTORS
330
47
102
}
330
47
100
AcDbScale
 70
     0
300
3/32" = 1'-0"
140
0.09375
141
12.0
290
     0
  0
SCALE
  5
5E
102
{ACAD_REACTORS
330
47
102
}
330
47
100
AcDbScale
 70
     0
300
1/8" = 1'-0"
140
0.125
141
12.0
290
     0
  0
SCALE
  5
5F
102
{ACAD_REACTORS
330
47
102
}
330
47
100
AcDbScale
 70
     0
300
3/16" = 1'-0"
140
0.1875
141
12.0
290
     0
  0
SCALE
  5
60
102
{ACAD_REACTORS
330
47
102
}
330
47
100
AcDbScale
 70
     0
300
1/4" = 1'-0"
140
0.25
141
12.0
290
     0
  0
SCALE
  5
61
102
{ACAD_REACTORS
330
47
102
}
330
47
100
AcDbScale
 70
     0
300
3/8" = 1'-0"
140
0.375
141
12.0
290
     0
  0
SCALE
  5
62
102
{ACAD_REACTORS
330
47
102
}
330
47
100
AcDbScale
 70
     0
300
1/2" = 1'-0"
140
0.5
141
12.0
290
     0
  0
SCALE
  5
63
102
{ACAD_REACTORS
330
47
102
}
330
47
100
AcDbScale
 70
     0
300
3/4" = 1'-0"
140
0.75
141
12.0
290
     0
  0
SCALE
  5
64
102
{ACAD_REACTORS
330
47
102
}
330
47
100
AcDbScale
 70
     0
300
1" = 1'-0"
140
1.0
141
12.0
290
     0
  0
SCALE
  5
65
102
{ACAD_REACTORS
330
47
102
}
330
47
100
AcDbScale
 70
     0
300
1-1/2" = 1'-0"
140
1.5
141
12.0
290
     0
  0
SCALE
  5
66
102
{ACAD_REACTORS
330
47
102
}
330
47
100
AcDbScale
 70
     0
300
3" = 1'-0"
140
3.0
141
12.0
290
     0
  0
SCALE
  5
67
102
{ACAD_REACTORS
330
47
102
}
330
47
100
AcDbScale
 70
     0
300
6" = 1'-0"
140
6.0
141
12.0
290
     0
  0
SCALE
  5
68
102
{ACAD_REACTORS
330
47
102
}
330
47
100
AcDbScale
 70
     0
300
1'-0" = 1'-0"
140
12.0
141
12.0
290
     0
  0
ENDSEC
  0
EOF
